Song name
# A B C D E F G H I J K L M N O P Q R S T U V W X Y Z

Bacharach Burt - This Guys In Love With You tab

title: This guy's in love with you
band: Parokya ni Edgar
tabbed by: mike alejandrino (pure bosconian!!! ehehe... proud to be from DBTC cebu)
well!!! i dont really know if it's correct.. ehehe... first time ko pa kc gumawa ng
tab eh... its up to you kung how much rate mo nito. para ito sa mga kapwa bosconian
ko na may gusto sa song


e|------------------------------------------------------------------|
B|----------------------14--11h12h14--15b--14h15b--14h15b\12--------|
G|----------11h12h13------------------------------------------------|
D|--11h12h13--------------------------------------------------------|
A|------------------------------------------------------------------|
E|------------------------------------------------------------------|


e|---------------------------------------------------------|
B|--12h13h15-15b--15h17-18b--------------------------------|
G|---------------------------------------------------------|
D|---------------------------------------------------------|
A|---------------------------------------------------------|
E|---------------------------------------------------------|


b = bend
h = hammer
\ = slide down
Tap to rate this tab
 
# A B C D E F G H I J K L M N O P Q R S T U V W X Y Z