Song name
# A B C D E F G H I J K L M N O P Q R S T U V W X Y Z

Bachman Turner Overdrive - Taking Care Of Business tab

Help us improve GuitareTab! Take a short survey!
Hey.  This is my favorite song and my first tab.  So i'm actually pretty sure it's good. 
i played this with a proffesional band and they loved it.  I can play the solo, but i 
tab it this time.  So, don't immediately criticize.

______________
Key           |
              |
^ = bend      |
. = plam mute |
_ = let ring  |
______________|

Intro
intro 1
|----------------------------------------------------------------|
|----------------------------------------------------------------|
|----------------------------------------------------------------|
|---------------------------------1010--12--1010-----------------|
|-1010--12--1010--8-8---10--8-8---8-8---8---8-8---1010--12--1010-|
|-8-8---8---8-8---6-6---6---6-6-------------------8-8---8---8-8--|

repeat once
intro 2
|-1212_1212_----------------55_55_------------------------------|
|-1111_1111_----------------44_44_------------------------------|
|-1212_1212_----6^----------55_55_----8^------------------------|
|-------------8---8-6-8_------------10--10-8-10_-10-8-10--------|
|---------------------------------------------------------------|
|---------------------------------------------------------------|

repeat once

verses
play intro 1 palm muted twice with repeats.

chorus
play intro 1 and 2 normally.

solos are not yet here.

silence except for drums

Rythm guitar 'solo'

|-------------------------|
|-------------------------|
|-------------------------|
|-----101010--8-8---------|
|-10108-8-8---6-6-8-8-8---|
|-8-8-------------6-6-6---|


i hope you enjoy this tab.  any comments on this tab, contact me at joshkelso72594@hotmail.com
Related for Taking Care Of Business tab