Song name
# A B C D E F G H I J K L M N O P Q R S T U V W X Y Z

Bachman Turner Overdrive - You Aint Seen Nothing Yet tab

Artist: Bachman-Turner Overdrive
Song: You Ain't Seen Nothing Yet
Tabbed by: Michael Dyck

Solo:

E|---12------------------------------------------------------------------------|
B|----------------------------15---------14-15-17------------------------------|
G|------------------------------------------------14---------------------------|
D|-----------------------------------------------------------------------------|
A|-----------------------------------------------------------------------------|
E|-----------------------------------------------------------------------------|


E|---12------------------------------------------------------------------------|
B|----------------------------15---------14-15-17-17---------------------------|
G|-----------------------------------------------------------------------------|
D|14---------------------------------------------------------------------------|
A|-----------------------------------------------------------------------------|
E|-----------------------------------------------------------------------------|

E|---17------------------------------------------------------------------------|
B|------------------------17br17------17-14-15-17------------------------------|
G|14----------------------------------------------14---------------------------|
D|-----------------------------------------------------------------------------|
A|-----------------------------------------------------------------------------|
E|-----------------------------------------------------------------------------|

E|---17------------------------------------------------------------------------|
B|------------------------17br17------14-15-17-14-15-17------------------------|
G|14----------------------------------------------------14---------------------|
D|-----------------------------------------------------------------------------|
A|-----------------------------------------------------------------------------|
E|-----------------------------------------------------------------------------|
Tap to rate this tab
 
# A B C D E F G H I J K L M N O P Q R S T U V W X Y Z