Bachman Turner Overdrive - Not Fragile tab

Not Fragile
Bachman-Turner Overdrive
Standard Tuning


E- ------------------------------------------------|
B- ------------------------------------------------|
G- ------------------------------------------------|
D- -7-7-7-7-7--10--5--7---7-7-7-7-7--12--10--5--7--|
A- -7-7-7-7-7--10--5--7---7-7-7-7-7--12--10--5--7--|
E- -5-5-5-5-5--8---3--5---5-5-5-5-5--10--8---3--5--|


E- ------------------------------------------------|
B- ------------------------------------------------|
G- ------------------------------------------------|
D- -7-7-7-7-7--10--5--7---7-7-7-7-7--12--10--5--7--|
A- -7-7-7-7-7--10--5--7---7-7-7-7-7--12--10--5--7--|
E- -5-5-5-5-5--8---3--5---5-5-5-5-5--10--8---3--5--|
Tap to rate this tab
 
# A B C D E F G H I J K L M N O P Q R S T U V W X Y Z