Song name
# A B C D E F G H I J K L M N O P Q R S T U V W X Y Z

Bachman Turner Overdrive - Let It Ride tab

B.T.O.\Let it Ride

I got tired of seeing all the bogus tabs for this one
online; nearly all of which are actually the chords 
(NOT the tab) and the wrong chords, at that, and
none with the solo. Here's how Randy plays it:

Chords:
There are two guitars but the one that makes 
the riff distinctive uses this sequence:

|-10------9-----12----9-------9-7----------------------|
|-10-----10-----12----9h10----7-7----9h10--------------|
|-11------9-----13----9h11----7-7----9h11--------------|
|-12-----11-----14----9--------------9h11--------------|
|------------------------------------------------------|
|------------------------------------------------------|

|-10------9-----12----9-------9-7----------------------|
|-10-----10-----12----9h10----7-7----------------------|
|-11------9-----13----9h11----7-7----------------------|
|-12-----11-----14----9--------------4(x)4(x)4---------|
|------------------------------------4(x)4(x)4-2h4-----|
|------------------------------------2(x)2(x)2---------|


Solo:

|-----2------------0-7p4-------------------------------|
|-------5p2-------------5--5-4-4-2p0-------------------|
|-4b6------4p2-----------6----------2-4-2-1------------|
|-------------4-4--------------------------2s4---------|
|------------------------------------------------------|
|------------------------------------------------------|

|------------------------------------------------------|
|------------------------------------------10-9--------|
|-----9--9-11b14-11b14-11b14--11b12b11-9--------11-9-7-|
|-9s11-11--------------------------------12------------|
|------------------------------------------------------|
|------------------------------------------------------|


|--------------2p0-------------------------------------|
|-----------------2------------------------------------|
|-7h9p7-6-6-4b6----2-4-2-2-4s13b14r--------------------|
|-----------------------4------------------------------|
|------------------------------------------------------|
|------------------------------------------------------|
Tap to rate this tab
# A B C D E F G H I J K L M N O P Q R S T U V W X Y Z