Song name
# A B C D E F G H I J K L M N O P Q R S T U V W X Y Z

Bachman Turner Overdrive - Second Hand tab

|-------------------|-----------------|-------------------|-------------------|
B|------------------|-----------------|-------------------|-------------------|
G|------------------|-----------------|-------------------|-------------------|
D|-----4-4p2-----7--|-----4-4p2-----7-|-----4-4p2--44/6/7-|-------------------|
A|--44-2-2-2--44-5--|--44-2-2-2--44-5-|--44-2-2-2--22/4/5-|-------------------|
E|--22--------22----|--22--------22---|--22---------------|-------------------|

e|------------------|-----------------|--------------------|-----------------|
B|------------------|-----------2-----|--------------------|-----------------|
G|----------------2-|------2--2-------|-2-0----------------|-----------------|
D|---------------2-4|--2-4--4---------|-----4-2-0----------|----4-etc--------|
A|---------0-2-4----|-----------------------------4-2-0----|-44-2------------|
E|-2-0-2-3----------|--------------------------------------|-22--------------|

| /  slide up
| \  slide down
| h  hammer-on
| p  pull-off
| ~  vibrato
| +  harmonic
| x  Mute note
Tap to rate this tab
 
# A B C D E F G H I J K L M N O P Q R S T U V W X Y Z