Song name
# A B C D E F G H I J K L M N O P Q R S T U V W X Y Z

Bachman Turner Overdrive - Not Fragile tab

Bass Riff
--------------------------------------|
--------------------------------------|
--------------------------------------|
--------------------------------------| 2x
-----------3-----------------5-3------|
-5-5-5-5-5---3-5---5-5-5-5-5-----3-5--|

Main Riff
-------------------------------------|
-------------------------------------|
-----------5-----------------7-5-----|
-7-7-7-7-7-5-5-7---7-7-7-7-7-7-5-5-7-| 2x come in after the bass plays
-7-7-7-7-7-3-5-7---7-7-7-7-7-5-3-5-7-|
-5-5-5-5-5---3-5---5-5-5-5-5-----3-5-|
Tap to rate this tab
 
# A B C D E F G H I J K L M N O P Q R S T U V W X Y Z