Song name
# A B C D E F G H I J K L M N O P Q R S T U V W X Y Z

Back Door Slam - Itll All Come Around tab

Help us improve GuitareTab! Take a short survey!
Band/Artist: Back Door Slam
Album: Roll Away
Song: It'll All Come Around


Intro/Chorus Riff

e-------------------2-2------|
b--2-2-2----2-2-3-4-3-3------|
g--2-2-2----2-3-4-4-2-2------|
d--2-2-2----2-4-5-5----------|
a-------------4-5-5----------|
E--------3b------------------|

e-------------------2-2------|
b--2-2-2----2-2-3-4-3-3------|
g--2-2-2----2-3-4-4-2-2------|
d--2-2-2----2-4-5-5----------|
a-------------4-5-5----------|
E--------3b------------------|

e-------------------2-2------|
b--2-2-2----2-2-3-4-3-3------|
g--2-2-2----2-3-4-4-2-2------|
d--2-2-2----2-4-5-5----------|
a-------------4-5-5----------|
E--------3b------------------|

e----------------------------|
b--2-2-2----2-2-3-4-2-2-3-3--|
g--2-2-2----2-3-4-4-3-3-4-4--|
d--2-2-2----2-4-5-5-4-4-5-5--|
a-------------4-5-5-4-4-5-5--|
E--------3b------------------|

I think this is how Davy Knowles plays it. Honestly, I was a little
surprised nobody has tabs up for Back Door Slam yet, so I figured I would
lead the way. I'd be more than happy for people to correct what I have and
complete the song, but this should be a good rough start.


Here is a video of the song performed live:

http://www.youtube.com/watch?v=qfz1Mdi7tKw&feature=related
Related for Itll All Come Around tab