Song name
# A B C D E F G H I J K L M N O P Q R S T U V W X Y Z

Back-on - Chain tab

This is nearly the whole song, though the number of times each part is reapeated changes 
out the song, the one or two parts that it changes from this we weren't able to hear completely.

Intro
e|---------------------------|--------------------------|
B|--8------------8--------8--|--6-----------6--------6--|
G|------------8--------8-----|-----------5--------7-----|
D|-----8--10--------8--------|-----5--8--------7--------|
A|---------------------------|--------------------------|
E|---------------------------|--------------------------|
                                                       x2

e|-------------------------------------------------|----------------------------------------------|
B|-------------------------------------------------|----------------------------------------------|
G|--12-12-12---------------------------------------|--12-12-12-------------------8-8-8--10-10-10--|
D|--10-10-10---------------------------------------|--10-10-10--8-8-8--10-10-10--6-6-6--8--8--8---|
A|------------8-8-8--10-10-10--13-13-13--12-12-12--|------------6-6-6--8--8--8--------------------|
E|------------6-8-8--8--8--8---11-11-11--10-10-10--|----------------------------------------------|
                                                                                         
       x4
Tap to rate this tab
# A B C D E F G H I J K L M N O P Q R S T U V W X Y Z