Guitaretab - guitar tabs
Song name
# A B C D E F G H I J K L M N O P Q R S T U V W X Y Z

Back-on - New World tab

-------------------------------------------------------------------------------
			     NEW WORLD - BACK-ON
-------------------------------------------------------------------------------
Tabbed by: Sean a.k.a. CrashAshes43
Email: xGib50nKing@yahoo.com

Tuning: Dropped Db/C#

Back with my second Back-On tab.
This is, again, a pretty comprehensive tab. To see my previous work, check out Chain 
is another single by BACK-ON.
http://www.ultimate-guitar.com/tabs/b/back-on/chain_tab_844821id_06072009date.htm
Rate and comment, if you please.

Part - Guitar(s) [Effect] (Start time - End time)
Got it? Good.

Song: New World
Artist: Back-On
Album: New World - EP
Genre: J-Rock/Nu Metal
Released: November 22nd, 2006

If you're confused as to where a guitar comes in, check the start time of the riff.

Guitar 1 - Shu
Guitar 2 - Kenji03

Intro - Guitar 1 [Distorted] (0:00 - 0:09)
eb|---------|
Bb|---------|
Gb|---------|
Db|----0----|
Ab|----0----|
Db|----0----|
To create the fade-in effect, play the chord with the volume dial at 0, then quickly 
it up to your preferred playing volume.

Intro - Guitar 2 [Distorted] (0:00 - 0:09)
eb|---------|
Bb|---------|
Gb|---------|
Db|---------|
Ab|---------|
Db|---------|

Intro Verse - Guitar 1 [Distorted] (0:09 - 0:24)
eb|-------------------------------|
Bb|-------------------------------| x3
Gb|----------------------5-5-5-5-5|
Db|0-0-0-7-7-7-7-5-5-5-5-5-5-5-5-5|
Ab|0-0-0-7-7-7-7-3-3-3-3-3-3-3-3-3|
Db|0-0-0-7-7-7-7-3-3-3-3----------|

eb|-------------------------------|
Bb|-------------------------------|
Gb|-------------------------------|
Db|0-0-0-7-7-7-7-5-5-7---3-3-5-5-5|
Ab|0-0-0-7-7-7-7-3-3-7---3-3-5-5-5|
Db|0-0-0-7-7-7-7-3-3-7---3-3-5-5-5|

Intro Verse - Guitar 2 [Distorted] (0:09 - 0:24)
eb|--------------------------8-8-8-8-8|
Bb|------10-10-10-10-8-8-8-8----------| x3
Gb|7-7-7---------------------5-5-5-5-5|
Db|------7--7--7--7--5-5-5-5----------|
Ab|5-5-5------------------------------|
Db|-----------------------------------|

eb|------------------------------------|
Bb|------10-10-10-10-8-8-10---6-6-8-8-8|
Gb|7-7-7-------------------------------|
Db|------7--7--7--7--5-5-7----3-3-5-5-5|
Ab|5-5-5-------------------------------|
Db|------------------------------------|

Verse 1 - Guitar 1 [Distorted] (0:24 - 0:51)
eb|-----------------------------------|
Bb|-----------------------------------| x4
Gb|--------------------------5-5-5-5-5|
Db|0-0---------5---9---------5-5-5-5-5|
Ab|0-0---------5---7---------3-3-3-3-3|
Db|0-0---------5---7------------------|
When Teeda says "...Dreams" on the second repeat, omit the first two open chords.

eb|-----------------------------------|
Bb|-----------------------------------| x4
Gb|--------------------------5-5-5-5-5|
Db|1-0---------5---9---------5-5-5-5-5|
Ab|1-0---------5---7---------3-3-3-3-3|
Db|1-0---------5---7------------------|
On the final repeat, omit the last 5 chords.

Verse 1 - Guitar 2 [Distorted] (0:36 - 0:51)
eb|---------|
Bb|---------|
Gb|---------|
Db|----0----|
Ab|----0----|
Db|----0----|
Same effect as intro.

eb|-----------------------------|
Bb|----8-8-7-7-5-5-(5)---8-8-8-8| x4
Gb|----9-9-7-7-5-5-(5)---9-9-9-9|
Db|-----------------------------|
Ab|-----------------------------|
Db|-----------------------------|
This is the only part I'm unsure of, as it's real quiet in the background.
I got as close as I could.

Chorus - Guitar 1 + 2 [Distorted] (0:51 - 1:18)
eb|---------------------------------------------------------------|
Bb|---------------------------------------------------------------|
Gb|----------------5-5-5-5-5-5-5-5--------------------------------|
Db|7-7-7-7-7-7-7-7-5-5-5-5-5-5-5-5-3-3-3-3-3-3-3-3-0-0-0-0-0-0-0-0|
Ab|7-7-7-7-7-7-7-7-3-3-3-3-3-3-3-3-3-3-3-3-3-3-3-3-0-0-0-0-0-0-0-0|
Db|7-7-7-7-7-7-7-7-----------------3-3-3-3-3-3-3-3-0-0-0-0-0-0-0-0|

eb|---------------------------------------------------------------|
Bb|---------------------------------------------------------------|
Gb|----------------5-5-5-5-5-5-5-5-7-7-7-7-7-7-7-7-10-10-10-9-----|
Db|7-7-7-7-7-7-7-7-5-5-5-5-5-5-5-5-7-7-7-7-7-7-7-7-10-10-10-9-----|
Ab|7-7-7-7-7-7-7-7-3-3-3-3-3-3-3-3-5-5-5-5-5-5-5-5-8--8--8--7-----|
Db|7-7-7-7-7-7-7-7------------------------------------------------|

eb|---------------------------------------------------------------|
Bb|---------------------------------------------------------------|
Gb|----------------5-5-5-5-5-5-5-5--------------------------------|
Db|7-7-7-7-7-7-7-7-5-5-5-5-5-5-5-5-3-3-3-3-3-3-3-3-0-0-0-0-0-0-0-0|
Ab|7-7-7-7-7-7-7-7-3-3-3-3-3-3-3-3-3-3-3-3-3-3-3-3-0-0-0-0-0-0-0-0|
Db|7-7-7-7-7-7-7-7-----------------3-3-3-3-3-3-3-3-0-0-0-0-0-0-0-0|

eb|-------------------------------------------------------|
Bb|-------------------------------------------------------| * See bottom
Gb|----------------5-5-5-5-5-5-5-5-----------------5-5---5|
Db|7-7-7-7-7-7-7-7-5-5-5-5-5-5-5-5-----------------5-5---5|
Ab|7-7-7-7-7-7-7-7-3-3-3-3-3-3-3-3-----------------3-3---3|
Db|7-7-7-7-7-7-7-7----------------------------------------|

eb|---------|
Bb|---------|
Gb|---------|
Db|----0----|
Ab|----0----|
Db|----0----|
Intro effect.

*During the last 3 power chords, Guitar 2 plays the open chord above.

Verse 2 - Guitar 1 [Distorted] (1:18 - 1:47)
eb|-----------------------------------|
Bb|-----------------------------------| x3
Gb|--------------------------5-5-5-5-5|
Db|0-0---------5---9---------5-5-5-5-5|
Ab|0-0---------5---7---------3-3-3-3-3|
Db|0-0---------5---7------------------|
[ Tab from: http://www.guitaretab.com/b/back-on/190707.html ]
eb|-----------------------------------|
Bb|-----------------------------------|
Gb|-----------------------------------|
Db|0-0---------5---9-----------5-5-3-5|
Ab|0-0---------5---7-----------5-5-3-5|
Db|0-0---------5---7-----------5-5-3-5|

eb|-----------------------------------|
Bb|-----------------------------------| x4
Gb|--------------------------5-5-5-5-5|
Db|1-0---------5---9---------5-5-5-5-5|
Ab|1-0---------5---7---------3-3-3-3-3|
Db|1-0---------5---7------------------|

Verse 2 - Guitar 2 [Distorted] (1:32 - 1:47)
eb|-----------------------------|
Bb|----8-8-7-7-5-5-(5)---8-8-8-8| x4
Gb|----9-9-7-7-5-5-(5)---9-9-9-9|
Db|-----------------------------|
Ab|-----------------------------|
Db|-----------------------------|

Chorus - Guitar 1 [Distorted] (1:47 - 2:11)
eb|---------------------------------------------------------------|
Bb|---------------------------------------------------------------|
Gb|----------------5-5-5-5-5-5-5-5--------------------------------|
Db|7-7-7-7-7-7-7-7-5-5-5-5-5-5-5-5-3-3-3-3-3-3-3-3-0-0-0-0-0-0-0-0|
Ab|7-7-7-7-7-7-7-7-3-3-3-3-3-3-3-3-3-3-3-3-3-3-3-3-0-0-0-0-0-0-0-0|
Db|7-7-7-7-7-7-7-7-----------------3-3-3-3-3-3-3-3-0-0-0-0-0-0-0-0|

eb|---------------------------------------------------------------|
Bb|---------------------------------------------------------------|
Gb|----------------5-5-5-5-5-5-5-5-7-7-7-7-7-7-7-7-10-10-10-9-----|
Db|7-7-7-7-7-7-7-7-5-5-5-5-5-5-5-5-7-7-7-7-7-7-7-7-10-10-10-9-----|
Ab|7-7-7-7-7-7-7-7-3-3-3-3-3-3-3-3-5-5-5-5-5-5-5-5-8--8--8--7-----|
Db|7-7-7-7-7-7-7-7------------------------------------------------|

eb|---------------------------------------------------------------|
Bb|---------------------------------------------------------------|
Gb|----------------5-5-5-5-5-5-5-5--------------------------------|
Db|7-7-7-7-7-7-7-7-5-5-5-5-5-5-5-5-3-3-3-3-3-3-3-3-0-0-0-0-0-0-0-0|
Ab|7-7-7-7-7-7-7-7-3-3-3-3-3-3-3-3-3-3-3-3-3-3-3-3-0-0-0-0-0-0-0-0|
Db|7-7-7-7-7-7-7-7-----------------3-3-3-3-3-3-3-3-0-0-0-0-0-0-0-0|

eb|-------------------------------|
Bb|-------------------------------|
Gb|----------------5-5-5-5-5-5-5-5|
Db|7-7-7-7-7-7-7-7-5-5-5-5-5-5-5-5|
Ab|7-7-7-7-7-7-7-7-3-3-3-3-3-3-3-3|
Db|7-7-7-7-7-7-7-7----------------|

Breakdown - Guitar 1 + 2 [Distortion] (2:11 - 2:25)

eb|---------------------------------------------------------------|
Bb|---------------------------------------------------------------|
Gb|7-----7-7-----7-7-----5-5-------7-----7-7-----7-7-------5-5-5-5|
Db|7-0-0-7-7-0-0-7-7-0-0-5-5-0-1-3-7-0-0-7-7-0-0-7-7-0-0-0-5-5-5-5|
Ab|5-0-0-5-5-0-0-5-5-0-0-3-3-0-1-3-5-0-0-5-5-0-0-5-5-0-0-0-3-3-3-3|
Db|--0-0-----0-0-----0-0-----0-1-3---0-0-----0-0-----0-0-0--------|

eb|---------------------------------------------------------------|
Bb|---------------------------------------------------------------|
Gb|7-----7-7-----7-7-----5-5-------7-----7-7-------7-------5-5-5-5|
Db|7-0-0-7-7-0-0-7-7-0-0-5-5-0-1-3-7-0-0-7-7-0-0-3-7-------5-5-5-5|
Ab|5-0-0-5-5-0-0-5-5-0-0-3-3-0-1-3-5-0-0-5-5-0-0-3-5-------3-3-3-3|
Db|--0-0-----0-0-----0-0-----0-1-3---0-0-----0-0-3-5--------------|

Chorus - Guitar 1 [Distorted] (2:25 - 2:52)
eb|---------------------------------------------------------------|
Bb|---------------------------------------------------------------|
Gb|----------------5-5-5-5-5-5-5-5--------------------------------|
Db|7-7-7-7-7-7-7-7-5-5-5-5-5-5-5-5-3-3-3-3-3-3-3-3-0-0-0-0-0-0-0-0|
Ab|7-7-7-7-7-7-7-7-3-3-3-3-3-3-3-3-3-3-3-3-3-3-3-3-0-0-0-0-0-0-0-0|
Db|7-7-7-7-7-7-7-7-----------------3-3-3-3-3-3-3-3-0-0-0-0-0-0-0-0|

eb|---------------------------------------------------------------|
Bb|---------------------------------------------------------------|
Gb|----------------5-5-5-5-5-5-5-5-7-7-7-7-7-7-7-7-10-10-10-9-----|
Db|7-7-7-7-7-7-7-7-5-5-5-5-5-5-5-5-7-7-7-7-7-7-7-7-10-10-10-9-----|
Ab|7-7-7-7-7-7-7-7-3-3-3-3-3-3-3-3-5-5-5-5-5-5-5-5-8--8--8--7-----|
Db|7-7-7-7-7-7-7-7------------------------------------------------|

eb|---------------------------------------------------------------|
Bb|---------------------------------------------------------------|
Gb|----------------5-5-5-5-5-5-5-5--------------------------------|
Db|7-7-7-7-7-7-7-7-5-5-5-5-5-5-5-5-3-3-3-3-3-3-3-3-0-0-0-0-0-0-0-0|
Ab|7-7-7-7-7-7-7-7-3-3-3-3-3-3-3-3-3-3-3-3-3-3-3-3-0-0-0-0-0-0-0-0|
Db|7-7-7-7-7-7-7-7-----------------3-3-3-3-3-3-3-3-0-0-0-0-0-0-0-0|

eb|-------------------------------|
Bb|-------------------------------|
Gb|----------------5-5-5-5-5-5-5-5|
Db|7-7-7-7-7-7-7-7-5-5-5-5-5-5-5-5|
Ab|7-7-7-7-7-7-7-7-3-3-3-3-3-3-3-3|
Db|7-7-7-7-7-7-7-7----------------|

Outro - Guitar 1 [Distorted] (2:52 - 3:11)
eb|-------------------------------|
Bb|-------------------------------| x3
Gb|----------------------5-5-5-5-5|
Db|0-0-0-7-7-7-7-5-5-5-5-5-5-5-5-5|
Ab|0-0-0-7-7-7-7-3-3-3-3-3-3-3-3-3|
Db|0-0-0-7-7-7-7-3-3-3-3----------|

eb|-------------------------------|
Bb|-------------------------------|
Gb|-------------------------------|
Db|0-0-0-7-7-7-7-5-5-7---3-3-5-5-5|
Ab|0-0-0-7-7-7-7-3-3-7---3-3-5-5-5|
Db|0-0-0-7-7-7-7-3-3-7---3-3-5-5-5|

Outro - Guitar 2 [Distorted] (2:52 - 3:11)
eb|--------------------------8-8-8-8-8|
Bb|------10-10-10-10-8-8-8-8----------| x3
Gb|7-7-7---------------------5-5-5-5-5|
Db|------7--7--7--7--5-5-5-5----------|
Ab|5-5-5------------------------------|
Db|-----------------------------------|

eb|------------------------------------|
Bb|------10-10-10-10-8-8-10---6-6-8-8-8|
Gb|7-7-7-------------------------------|
Db|------7--7--7--7--5-5-7----3-3-5-5-5|
Ab|5-5-5-------------------------------|
Db|------------------------------------|


| /  slide up
| \  slide down
| h  hammer-on
| p  pull-off
| ~  vibrato
| +  harmonic
| x  Mute note
| () ghost note
| |_| palm mute
===============================================================================
Related for New World tab
Advertisement will be closed in 10 seconds