Song name
# A B C D E F G H I J K L M N O P Q R S T U V W X Y Z

Back Stabbers - Why Did You Leave Me tab

electric guitar

intro
E|-----------------|-----------------|-----------------|-----------------|
B|-----------------|-----------------|-----------------|-----------------|
G|-4-4-4-4-4-4-4-4-|-----------------|-----------------|-----------------|
D|-4-4-4-4-4-4-4-4-|-4-4-4-4-4-4-4-4-|-6-6-6-6-6-6-6-6-|-2-2-2-2---------|
A|-2-2-2-2-2-2-2-2-|-4-4-4-4-4-4-4-4-|-6-6-6-6-6-6-6-6-|-2-2-2-2---------|
E|-----------------|-2-2-2-2-2-2-2-2-|-4-4-4-4-4-4-4-4-|-0-0-0-0---------|

verse
E|-----------------|-----------------|-----------------|-----------------|
B|-----------------|-----------------|-----------------|-----------------|
G|-4-4-4-4-4-4-4-4-|-----------------|-----------------|-----------------|
D|-4-4-4-4-4-4-4-4-|-4-4-4-4-4-4-4-4-|-6-6-6-6-6-6-6-6-|-2-2-2-2-2-2-2-2-|x3
A|-2-2-2-2-2-2-2-2-|-4-4-4-4-4-4-4-4-|-6-6-6-6-6-6-6-6-|-2-2-2-2-2-2-2-2-|
E|-----------------|-2-2-2-2-2-2-2-2-|-4-4-4-4-4-4-4-4-|-0-0-0-0-0-0-0-0-|

chorus
E|-----------------|-----------------|-----------------|-----------------|
B|-----------------|-----------------|-----------------|-----------------|
G|-4---------------|-----------------|-----------------|-----------------|
D|-4---------------|-4---------------|-6---------------|-2---------------|x2
A|-2---------------|-4---------------|-6---------------|-2---------------|
E|-----------------|-2---------------|-4---------------|-0---------------|


verse
E|-----------------|-----------------|-----------------|-----------------|
B|-----------------|-----------------|-----------------|-----------------|
G|-4-4-4-4-4-4-4-4-|-----------------|-----------------|-----------------|
D|-4-4-4-4-4-4-4-4-|-4-4-4-4-4-4-4-4-|-6-6-6-6-6-6-6-6-|-2-2-2-2-2-2-2-2-|x3
A|-2-2-2-2-2-2-2-2-|-4-4-4-4-4-4-4-4-|-6-6-6-6-6-6-6-6-|-2-2-2-2-2-2-2-2-|
E|-----------------|-2-2-2-2-2-2-2-2-|-4-4-4-4-4-4-4-4-|-0-0-0-0-0-0-0-0-|


chorus
E|-----------------|-----------------|-----------------|-----------------|
B|-----------------|-----------------|-----------------|-----------------|
G|-4---------------|-----------------|-----------------|-----------------|
D|-4---------------|-4---------------|-6---------------|-2---------------|x2
A|-2---------------|-4---------------|-6---------------|-2---------------|
E|-----------------|-2---------------|-4---------------|-0---------------|

outro
E|-----------------|-----------------|-----------------|-----------------|-----------------|
B|-----------------|-----------------|-----------------|-----------------|-----------------|
G|-4-4-4-4-4-4-4-4-|-----------------|-----------------|-----------------|-----------------|
D|-4-4-4-4-4-4-4-4-|-4-4-4-4-4-4-4-4-|-6-6-6-6-6-6-6-6-|-2-2-2-2-2-2-2-2-|-2-2-2-2-2-2-2-2-|
A|-2-2-2-2-2-2-2-2-|-4-4-4-4-4-4-4-4-|-6-6-6-6-6-6-6-6-|-2-2-2-2-2-2-2-2-|-2-2-2-2-2-2-2-2-|
E|-----------------|-2-2-2-2-2-2-2-2-|-4-4-4-4-4-4-4
Tap to rate this tab
# A B C D E F G H I J K L M N O P Q R S T U V W X Y Z