Song name
# A B C D E F G H I J K L M N O P Q R S T U V W X Y Z

Back To School - Irgendwann tab

-----------------------------------------------------------------------------------
			     Irgendwann - Back to School
-----------------------------------------------------------------------------------
Tabbed by:	Back to School
Email:		BacktoSchoolTV@gmx.de

Tuning:		Standard


Intro Part I

Gitarre 1:
e|-------------------------------------------|
H|-------------------------------------------|
G|------------4-------------------4----------|
D|--6----2----4----4----6----2----4----4-----|				(1X)
A|--6----2----2----4----6----2----2----4-----|
E|--4----0---------2----4----0---------2-----|
    v    v    v    v    v    v    v    v

Gitarre 2:
e|-------------------------------------------|
H|-------------------------------------------|
G|-------------------------------------------|
D|-------------------------------------------|				(1X)
A|--4/6---2---4/6/7\4---2/4/6-2---4/6/7\4----|
E|-------------------------------------------|


Intro Part II

Gitarre 1:
e|-------------------------------------------|
H|-------------------------------------------|
G|--------------------4-4-4444---------------|
D|--6-6-6666-2-2-2222-4-4-4444-4-44-4-44-----|				(1X)
A|--6-6-6666-2-2-2222-2-2-2222-4-44-4-44-----|
E|--4-4-4444-0-0-0000----------2-22-2-22-----|
                                 xx   xx
    v v v^v^ v v v^v^ v v v^v^ v vv v vv

e|-------------------------------------------|
H|-------------------------------------------|
G|--------------------4-4-4444---------------|
D|--6-6-6666-2-2-2222-4-4-4444-4-4-4444------|				(1X)
A|--6-6-6666-2-2-2222-2-2-2222-4-4-4444------|
E|--4-4-4444-0-0-0000----------2-2-2222------|
    v v v^v^ v v v^v^ v v v^v^ v v v^v^

e|-------------------------------------------|
H|-------------------------------------------|
G|--------------------4-4-4444---------------|
D|--6-6-6666-2-2-2222-4-4-4444-4-44-4-44-----|				(1X)
A|--6-6-6666-2-2-2222-2-2-2222-4-44-4-44-----|
E|--4-4-4444-0-0-0000----------2-22-2-22-----|
                                 xx   xx
    v v v^v^ v v v^v^ v v v^v^ v vv v vv

e|------------------------------------------------|
H|------------------------------------------------|
G|--------------------4-4-4444--------------------|
D|--6-6-6666-2-2-2222-4-4-4444-4-4-4444-4-4-4444--|			(1X)
A|--6-6-6666-2-2-2222-2-2-2222-4-4-4444-4-4-4444--|
E|--4-4-4444-0-0-0000----------2-2-2222-2-2-2222--|
    v v v^v^ v v v^v^ v v v^v^ v v v^v^ v v v^v^

Gitarre 2:
e|---------------------------------------------------------------------------|
H|---------------------------------------------------------------------------|
G|--------------------------------------------------------------------(b)----|
D|----------------------------4--------------------------------------4-6--4--|
A|--4/6-4-2-4-2---2-4-4/6-4-6---6-4----2-4-4/6-4-2-4-2---2-4-4/6-4-6---------|
E|--------------4--------------------------------------4---------------------|

e|--------------------------------------------------------------------------------|
H|--------------------------------------------------------------------------------|
G|--------------------------------------------------------------------(b)---(b)---|
D|----------------------------4--------------------------------------4-6--4--6--4-|
A|--4/6-4-2-4-2---2-4-4/6-4-6---6-4----2-4-4/6-4-2-4-2---2-4-4/6-4-6--------------|
E|--------------4--------------------------------------4--------------------------|


Strophe:

Gitarre 1:
e|------------------------------------------|
H|------------------------------------------|
G|------------4-------------------4---------|
D|--6----2----4----4----6----2----4----4----|				(1X)
A|--6----2----2----4----6----2----2----4----|
E|--4----0---------2----4----0---------2----|
    v    v    v    v    v    v    v    v

e|------------------------------------------|
H|------------------------------------------|
G|--------------------44444444--------------|
D|--6-666666-22222222-44444444-44444444-----|				(1X)
A|--6-666666-22222222-22222222-44444444-----|
E|--4-444444-00000000----------22222222-----|
      xxxxxx xxxxxxxx xxxxxxxx xxxxxxxx
    v vvvvvv vvvvvvvv vvvvvvvv vvvvvvvv

e|---------------------------------------------------|
H|---------------------------------------------------|
G|--------------------44444444-----------------------|
D|--6-666666-22222222-44444444-44444444--44-4--44-4--|			(1X)
A|--6-666666-22222222-22222222-44444444--44-4--44-4--|
E|--4-444444-00000000----------22222222--22-2--22-2--|
      xxxxxx xxxxxxxx xxxxxxxx xxxxxxxx  xx    xx
    v vvvvvv vvvvvvvv vvvvvvvv vvvvvvvv  vv v  vv v

Gitarre 2:
e|---------------------------------------------------|
H|---------------------------------------------------|
G|--8--------4--------8--------6---------------------|
D|--x--------x--------x--------x---------------------|			(1x)
A|--6--------2--------6--------4---------------------|
E|---------------------------------------------------|

e|---------------------------------------------------|
H|---------------------------------------------------|
G|--8--------4--------8--------6----888--------------|
D|--x--------x--------x--------x----xxx--------------|			(1x)
A|--6--------2--------6--------4----666--------------|
E|---------------------------------------------------|

e|---------------------------------------------------|
H|---------------------------------------------------|
G|--4-44-4-44-4-444444-4-44-4-44-6-66666/8\----------|
D|--x-xx-x-xx-x-xxxxxx-x-xx-x-xx-x-xxxxx/x\----------|			(1x)
A|--2-22-2-22-2-222222-2-22-2-22-4-44444/6\----------|
E|---------------------------------------------------|
      xx   xx   xxxxxx   xx   xx   xxxx
    v vv v vv v vvvvvv v vv v vv v vvvvv

e|---------------------------------------------------|
H|---------------------------------------------------|
G|-\4-44-4-44-4-444444-4-44-4-44-6-666666-66-6-66-6--|
D|-\x-xx-x-xx-x-xxxxxx-x-xx-x-xx-x-xxxxxx-xx-x-xx-x--|			(1x)
A|-\2-22-2-22-2-222222-2-22-2-22-4-444444-44-4-44-4--|
E|---------------------------------------------------|
      xx   xx   xxxxxx   xx   xx   xxxxxx xx   xx
    v vv v vv v vvvvvv v vv v vv v vvvvvv vv v vv v


Refrain:

Gitarre 1/Gitarre 2:
e|---------------------------------------|
H|---------------------------------------|
G|--4-4-4444-----------------------------|
D|--4-4-4444-2-2-2222-6-6-6666-4-4-4444--|				(2x)
A|--2-2-2222-2-2-2222-6-6-6666-4-4-4444--|
E|-----------0-0-0000-4-4-4444-2-2-2222--|
    v v v^v^ v v v^v^ v v v^v^ v v v^v^

1.Refrain:
e|-----------------------------|
H|-----------------------------|
G|--44-------------------------|
D|--44----22----66----44-44----|					(2x)
A|--22----22----66----44-44----|
E|--------00----44----22-22----|
    v^    v^    v^    v^ v^

2.Refrain:
e|-----------------------------|
H|-----------------------------|
G|--4--------------------------|
D|--4-----2-----6-----4--------|					(2x)
A|--2-----2-----6-----4--------|
E|--------0-----4-----2--------|


Solo:

Gitarre 1:
e|------------------------------------------------|
H|------------------------------------------------|
G|--------------------4-4-4444--------------------|
D|--6-6-6666-2-2-2222-4-4-4444-4-4-4444-----------|			(3X)
A|--6-6-6666-2-2-2222-2-2-2222-4-4-4444-----------|
E|--4-4-4444-0-0-0000----------2-2-2222-----------|
    v v v^v^ v v v^v^ v v v^v^ v v v^v^

e|------------------------------------------------|
H|------------------------------------------------|
G|--------------------4-4-4444--------------------|
D|--6-6-6666-2-2-2222-4-4-4444-4-4-4444-4-4-4444--|			(1X)
A|--6-6-6666-2-2-2222-2-2-2222-4-4-4444-4-4-4444--|
E|--4-4-4444-0-0-0000----------2-2-2222-2-2-2222--|
    v v v^v^ v v v^v^ v v v^v^ v v v^v^ v v v^v^


Gitarre 2:
e|--------------------------------------------------------------------------------|
H|----------------------------------------------------------------------------(b)-|
G|-----------------------------------------------------------------------6-8-9-8--|
D|-9-9-9-8-6-8/9-9-9-9-9-9-9-8-6\4-6-6-6-4-4-4-6/9-8-6-8/9-9-9-9-9-9-9------------|
A|--------------------------------------------------------------------------------|
E|--------------------------------------------------------------------------------|
   x x           x x   x x           x x   x x             x x   x x

e|--------------------------------------------------------------------------------|
H|-12-12-12121212---------11/12-12-1212-11-12-12/14-14141414-12-14-14/16-14-16----|
G|----------------9-9-999---------------------------------------------------------|
D|--------------------------------------------------------------------------------|
A|--------------------------------------------------------------------------------|
E|--------------------------------------------------------------------------------|

e|----------------------------------------------------------------------(b)-------|
H|-----11/12-12-11-12-12-14-14/16-14-16-16/17-16-14-12-14-14/16-14-12-14-14-------|
G|-9-9----------------------------------------------------------------------------|
D|--------------------------------------------------------------------------------|
A|--------------------------------------------------------------------------------|
E|--------------------------------------------------------------------------------|


Ablauf:		Intro
		Strophe
		Refrain
		1/2 Intro Part II
		Strophe
		Refrain
		Solo
		Strophe
		Refrain
		Intro/Outro


************************************
| v   brush down
| ^   brush up
| /   slide up
| \   slide down
| h   hammer-on
| p   pull-off
| ~   vibrato
| +   harmonic
| x   Mute note
| b   Bend
| pb  Pre-bend
| br  Bend release
| pbr Pre-bend release
| brb Bend release bend

************************************
Tap to rate this tab
# A B C D E F G H I J K L M N O P Q R S T U V W X Y Z