Song name
# A B C D E F G H I J K L M N O P Q R S T U V W X Y Z

Back To School - Halts Maul Und Zieh Leine chords

Highlighted       Show chord diagrams
-----------------------------------------------------------------------------------
	Halts Maul und zieh Leine - Back to School
-----------------------------------------------------------------------------------

Tabbed by:	Back to School
Email:		BacktoSchoolTV@gmx.de

Tuning:		Standard


Intro:

Gitarre 1:
e|-------------------------------------------------------------------|
H|----1-----1---------1-----1---------1-----1---------1-----1--------|
G|------0-----0---0-----0-----0---0-----2-----2---2-----2-----2---2--|
D|----------------------------------2-----2-----2---3-----3-----3----|		(2x)
A|--3-----3-----3---2-----2-----2------------------------------------|
E|-------------------------------------------------------------------|

Gitarre 2:
e|------------------3----1----0---------------------3/5---3--5-----|
H|--1-------------------------------1------------------------------|
G|-----------------------------------------------------------------|
D|-----------------------------------------------------------------|
A|-----------------------------------------------------------------|
E|-----------------------------------------------------------------|

e|--3---------------1----0--------------------------3-----1--0-----|
H|----------------------------3-----1---------------------------1--|
G|-----------------------------------------------------------------|
D|-----------------------------------------------------------------|
A|-----------------------------------------------------------------|
E|-----------------------------------------------------------------|


Strophe:

Gitarre 1:
e|-------------------------------------------------------------------|
H|----1-----1---------1-----1---------1-----1---------1-----1--------|
G|------0-----0---0-----0-----0---0-----2-----2---2-----2-----2---2--|
D|----------------------------------2-----2-----2---3-----3-----3----|		(2x)
A|--3-----3-----3---2-----2-----2------------------------------------|
E|-------------------------------------------------------------------|


e|-------------------------------------------------------------------|
H|----1-----1---------3-----3---------1-----1---------1-------3------|
G|------0-----0---0-----0-----0---0-----2-----2---2-----2-------0----|
D|----------------------------------3-----3-----3---2-----2----------|		(2x)
A|--3-----3-----3----------------------------------------------------|
E|------------------3-----3-----3---------------------------3-----3--|


Strophe 1:

C             E7                 Am           F                C
   Es tut mir weh, wenn ich dran denke wie es alles mit dir anfing.
            E7                   Am              F            C
Wir haben gelacht und waren lang wach, wir haben uns alles erzählt.
             G          F                    Am      G     C
Ich werde es niemals vergessen. Die Zeit mit dir war wunderbar 
              G           F                 Am         G      C
und ich würde alles dafür geben, dass es so wird wie’s einmal war.


Strophe 2:

C             E7                 Am            F                       C
   Es tut mir weh, wenn ich dich sehe, denn du schaust mich nicht mehr an.
              E7                Am                F            C
Sag' mir, was hab ich falsch gemacht? Hab ich dir irgendwas getan?
             G          F                    Am      G       C
Ich werde es niemals vergessen. Die Zeit als wir unsterblich waren
              G           F                 Am         G      C
und ich würde alles dafür geben, damit's so wird wie’s einmal war.


Strophe 3:

C            E7               Am
   Kannst du dich noch dran erinnern?
                F         C              E7           Am
Als wir uns das erste mal sahen, standen wir beide im Regen 
    F                     C         E7            Am
und sahen uns einfach nur an. Deine wunderschönen Augen
         F          C                   E7         Am 
und dein supersüßes lächeln… Ich dachte jetzt oder nie,
            F               C
hab' mich sofort in dich verliebt...
C        E7             Am               F            C 
und dann hab ich dich gefragt, ob du mit mir ins Kino magst,
          E7          Am
dann hast du zu mir gesagt… 

                
                     C           E7          Am
halt’s maul und zieh leine, zieh leine, zieh leine
       F             C           E7          Am
halt’s maul und zieh leine, zieh leine, zieh leine
       F             C           E7          Am     
halt’s maul und zieh leine...
Tap to rate this tab
# A B C D E F G H I J K L M N O P Q R S T U V W X Y Z