Song name
# A B C D E F G H I J K L M N O P Q R S T U V W X Y Z

Back To School - Orkan tab

-----------------------------------------------------------------------------------
			     Orkan - Back to School
-----------------------------------------------------------------------------------

Tabbed by:	Back to School
Email:		BacktoSchoolTV@gmx.de

Tuning:		Standard


Intro Part I

Gitarre 1:
e|-------------------------------------------|
H|-------------------------------------------|
G|--2222222222222222----------77777777-------|
D|--2222222222222222-22222222-77777777-------|				(1X)
A|--0000000000000000-22222222-55555555-------|
E|-------------------00000000----------------|
    xxxxxxxxxxxxxxxx xxxxxxxx xxxxxxxx
    vvvvvvvvvvvvvvvv vvvvvvvv vvvvvvvv

Gitarre 2:
e|-------------------------------------------------|
H|-------------------------------------------------|
G|--9--9/11/13--13/14--7\6--6/7/9--9/11--11/14-----|
D|--x--x/x-/x---x-/x---x\x--x/x/x--x/x---x-/x------|			(1X)
A|--7--7/9-/11--11/12--5\4--4/5/7--7/9---9-/12-----|
E|-------------------------------------------------|


Intro Part II

Gitarre 1:
e|-------------------------------------------|
H|-------------------------------------------|
G|--2222222222222222----------77777777-------|
D|--2222222222222222-22222222-77777777-------|				(2X)
A|--0000000000000000-22222222-55555555-------|
E|-------------------00000000----------------|

Gitarre 2
e|-------------------------------------------------------------------|
H|-------------------------------------------------------------------|
G|--------9---------6---7---9-------------6-------------9---6--------|
D|----7-----7---7---------------7-----9-----9---9---7-----------7----|	(2x)
A|--0---0-----0---0---0---0---0---0-7---7-----7---7---5---5---5------|
E|-------------------------------------------------------------------|


1. Strophe:

Gitarre 1:
e|-------------------------------------------|
H|-------------------------------------------|
G|--2222222222222222----------77777777-------|
D|--2222222222222222-22222222-77777777-------|				(2X)
A|--0000000000000000-22222222-55555555-------|
E|-------------------00000000----------------|
    xxxxxxxxxxxxxxxx xxxxxxxx xxxxxxxx
    vvvvvvvvvvvvvvvv vvvvvvvv vvvvvvvv

Gitarre 2:
e|-------------------------------------------|
H|-------------------------------------------|
G|--2-------------------------7--------------|
D|--2----------------2--------7--------------|				(2X)
A|--0----------------2--------5--------------|
E|-------------------0-----------------------|


2./3. Strophe

Gitarre 1:
e|-------------------------------------------|
H|-------------------------------------------|
G|--2222222222222222----------77777777-------|
D|--2222222222222222-22222222-77777777-------|				(1X)
A|--0000000000000000-22222222-55555555-------|
E|-------------------00000000----------------|
    xxxxxxxxxxxxxxxx xxxxxxxx xxxxxxxx
    vvvvvvvvvvvvvvvv vvvvvvvv vvvvvvvv

Gitarre 1:
e|-------------------------------------------|
H|-------------------------------------------|
G|--2222222222222222----------77776666-------|
D|--2222222222222222-22222222-77777777-------|				(1X)
A|--0000000000000000-22222222-55554444-------|
E|-------------------00000000----------------|
    xxxxxxxxxxxxxxxx xxxxxxxx xxxxxxxx
    vvvvvvvvvvvvvvvv vvvvvvvv vvvvvvvv

Gitarre 2:
e|-------------------------------------------|
H|-------------------------------------------|
G|--2-------------------------7--------------|
D|--2----------------2--------7--------------|				(1X)
A|--0----------------2--------5--------------|
E|-------------------0-----------------------|
 
Gitarre 2:
e|-------------------------------------------|
H|-------------------------------------------|
G|--2-------------------------7---6----------|
D|--2----------------2--------7---7----------|				(1X)
A|--0----------------2--------5---4----------|
E|-------------------0-----------------------|
 

Refrain:

Gitarre 1:
e|--------------------------------------------------------------------|
H|--------------------------------------------------------------------|
G|--77777777-22222222-------------------77777777-22222222-------------|
D|--77777777-22222222-22222222-44444444-77777777-22222222-444-2-222---| (2x)		
A|--55555555-00000000-22222222-44444444-55555555-00000000-444-2-222---|
E|--------------------00000000-22222222-------------------222-0-000---|

						      e|--------------|
   						      H|--------------|
			2. Refrain vor der Bridge     G|--------------| 
						      D|--22222222----|	(1x)
						      A|--22222222----|
						      E|--00000000----|

Gitarre 2:
e|--------------------------------------------------------------------|
H|--------------------------------------------------------------------|
G|--77777777-99999999-44444444-66666666-77777777-66666666-44444444----|
D|--xxxxxxxx-xxxxxxxx-xxxxxxxx-xxxxxxxx-xxxxxxxx-xxxxxxxx-xxxxxxxx----|	(2x)
A|--55555555-77777777-22222222-44444444-55555555-44444444-22222222----|
E|--------------------------------------------------------------------|





Bridge:

1. Gitarre:
e|---------------------------------------------------------------------|
H|---------------------------------------------------------------------|
G|-----------------------------------7777777777777777------------------|
D|-4444444444444444-7777777777777777-7777777777777777-2222222222222222-|(2x)
A|-4444444444444444-7777777777777777-5555555555555555-2222222222222222-|
E|-2222222222222222-5555555555555555------------------0000000000000000-|
   xxxxxxxxxxxxxxxx xxxxxxxxxxxxxxxx xxxxxxxxxxxxxxxx xxxxxxxxxxxxxxxx
   vvvvvvvvvvvvvvvv vvvvvvvvvvvvvvvv vvvvvvvvvvvvvvvv vvvvvvvvvvvvvvvv

2. Gitarre:
e|----------------------------------------------------------|
H|----------------------------------------------------------|
G|--6-----6-----6-----4---6---7-----7-----7-----7-----------|
D|----7-7---7-7---7-7---7---7---7-7---7-7---7-7---7---------|
A|----------------------------------------------------------|
E|----------------------------------------------------------|
      x x   x x   x x   x   x   x x   x x   x x   x 

e|----------------------------------------------------------|
H|----------------------------------------------------------|
G|-6---4-----4-----4-----6---7---4-----4-----4-----4---4----|
D|---7---7-7---7-7---7-7---7---7---7-7---7-7---7-7---7---7--|
A|----------------------------------------------------------|
E|----------------------------------------------------------|
     x   x x   x x   x x   x   x   x x   x x   x x   x   x


Outro:

Gitarre 1:
e|----------------------------------------------------------|
H|----------------------------------------------------------|
G|--------------------------------7-------------------------|
D|--444-2-222-444-2-222-444-2-222-7-------------------------|	(1x)
A|--444-2-222-444-2-222-444-2-222-5-------------------------|
E|--222-0-000-222-0-000-222-0-000---------------------------|
    vvv v vvv vvv v vvv vvv v vvv v

Gitarre 2:
e|----------------------------------------------------------|
H|----------------------------------------------------------|
G|--444-6-666-444-6-666-444-6-666-7-------------------------|
D|--xxx-x-xxx-xxx-x-xxx-xxx-x-xxx-x-------------------------|	(1x)
A|--222-4-444-222-4-444-222-4-444-5-------------------------|
E|----------------------------------------------------------|
    vvv v vvv vvv v vvv vvv v vvv v


Ablauf:		
Intro
Strophe
Intro
Strophe
Refrain
Strophe
Refrain
Bridge
Refrain
Outro


************************************
| v   brush down
| ^   brush up
| /   slide up
| \   slide down
| h   hammer-on
| p   pull-off
| ~   vibrato
| +   harmonic
| x   Mute note
| b   Bend
| pb  Pre-bend
| br  Bend release
| pbr Pre-bend release
| brb Bend release bend

************************************
Tap to rate this tab
 
# A B C D E F G H I J K L M N O P Q R S T U V W X Y Z