Song name
# A B C D E F G H I J K L M N O P Q R S T U V W X Y Z

Back To School - One Of Your Lies tab

-----------------------------------------------------------------------------------
			     One Of Your Lies - Back to School
-----------------------------------------------------------------------------------

Tabbed by:	Back to School
Email:		BacktoSchoolTV@gmx.de

Tuning:		Standard


Intro/Strophe:

Gitarre 1:
e|----------------------------------------|
H|----------------------------------------|
G|------9-999999-55555555----------77777--|
D|--222-9-999999-55555555-55555555-77777--|		(2x)
A|--222-7-777777-33333333-55555555-55555--|
E|--000-------------------33333333--------|
          xxxxxx xxxxxxxx xxxxxxxx xxxxx
    vvv v vvvvvv vvvvvvvv vvvvvvvv vvvvv

e|----------------------------------------|
H|----------------------------------------|
G|------9-999999-55555555----------7------|
D|--222-9-999999-55555555-55555555-7------|		
A|--222-7-777777-33333333-55555555-5------|
E|--000-------------------33333333--------|
          xxxxxx xxxxxxxx xxxxxxxx
    vvv v vvvvvv vvvvvvvv vvvvvvvv v

Gitarre 2:
e|---------------------------------------------------------------------|
H|---------------------------------------------------------------------|
G|--121212--121212--121212--121212--121212--12-1414-1111--11111111/----|
D|--x-x-x---x-x-x---x-x-x---x-x-x---x-x-x---x--x-x--x-x---x-x-x-x-/----|
A|--101010--101010--101010--101010--101010--10-1212-9-9---9-9-9-9-/----|
E|---------------------------------------------------------------------|

    v v v   v v v   v v v   v v v   v v v   v  v v  v v   v v v v v

e|---------------------------------------------------------------------|
H|---------------------------------------------------------------------|
G|--/121212--121212--121212--121212--121212--12-1414-1111--11----------|
D|--/x-x-x---x-x-x---x-x-x---x-x-x---x-x-x---x--x-x--x-x---x-----------|
A|--/101010--101010--101010--101010--101010--10-1212-9-9---9-----------|
E|---------------------------------------------------------------------|

     v v v   v v v   v v v   v v v   v v v   v  v v  v v   v 


Refrain:

Gitarre 1:
e|------------------------------------------------------------------------|
H|------------------------------------------------------------------------|
G|------------------------------------7777777777777777-9-9-9\7-5-5555555--|
D|--2222222222222222-5555555555555555-7777777777777777-9-9-9\7-5-5555555--|
A|--2222222222222222-5555555555555555-5555555555555555-7-7-7\5-3-3333333--|
E|--0000000000000000-3333333333333333-------------------------------------|

e|------------------------------------------------------------------------|
H|------------------------------------------------------------------------|
G|------------------------------------7777777777777777-9-9-9\7-5-5555-----|
D|--2222222222222222-5555555555555555-7777777777777777-9-9-9\7-5-5555-----|
A|--2222222222222222-5555555555555555-5555555555555555-7-7-7\5-3-3333-----|
E|--0000000000000000-3333333333333333-------------------------------------|


Gitarre 2:
e|--------------------------------------|
H|--------------------------------------|
G|--9999-10-10-10-10-12121212-14141414--|
D|--xxxx-x--x--x--x--x-x-x-x--x-x-x-x---|		(3x)
A|--7777-9--9--9--9--10101010-12121212--|
E|--------------------------------------|

e|--------------------------------------|
H|--------------------------------------|
G|--16-16-16-14-11--11111111111111------|
D|--x--x--x--x--x---x-x-x-x-x-x-x-------|
A|--14-14-14-12-9---9-9-9-9-9-9-9-------|
E|--------------------------------------|

e|--------------------------------------|
H|--------------------------------------|
G|--9999-10-10-10-10-12121212-14141414--|
D|--xxxx-x--x--x--x--x-x-x-x--x-x-x-x---|		(3x)
A|--7777-9--9--9--9--10101010-12121212--|
E|--------------------------------------|

e|--------------------------------------|
H|--------------------------------------|
G|--16-16-16-14-11--11111111------------|
D|--x--x--x--x--x---x-x-x-x-------------|
A|--14-14-14-12-9---9-9-9-9-------------|
E|--------------------------------------|


Interlude:

Gitarre 1:
e|--------------------------------------|
H|--------------------------------------|
G|--1212121212121212-5555-5555----------|
D|--1212121212121212-5555-7777----------|		(4x)
A|--1010101010101010-3333-5555----------|
E|--------------------------------------|

Gitarre 2:
e|--------------------------------------|
H|--------------------------------------|
G|--1919191919191919-12121212-14141414--|
D|--x-x-x-x-x-x-x-x--x-x-x-x--x-x-x-x---|		(4x)
A|--1717171717171717-10101010-12121212--|
E|--------------------------------------|


Solo:

Gitarre 1:
e|------------------------------------------------------------------------|
H|------------------------------------------------------------------------|
G|------------------------------------7777777777777777-9-9-9\7-5-5555555--|
D|--2222222222222222-5555555555555555-7777777777777777-9-9-9\7-5-5555555--|
A|--2222222222222222-5555555555555555-5555555555555555-7-7-7\5-3-3333333--|
E|--0000000000000000-3333333333333333-------------------------------------|

Gitarre 2:
e|------------------------------------|
H|------------------------------------|
G|------------------------------------|
D|--7/9--7-5-7--5---------------------|			(3x)
A|----------------7-7/9-7-5-7--5-7-5--|
E|------------------------------------|

e|---------------|
H|---------------|
G|---------------|
D|--5/9-9-99-10--|			
A|--5/9-9-99-10--|
E|---------------|


Ende

Gitarre 1:	Gitarre 2:
e|-----|	e|-----|
H|-----|	H|-----|
G|-----|	G|--9--|
D|--2--|	D|--9--|
A|--2--|	A|--7--|
E|--0--|	E|-----|


Ablauf:		
Intro/Strophe
Refrain
Intro/Strophe
Refrain
Interlude
Solo
Refrain
Interlude
Ende


************************************
| v   brush down
| ^   brush up
| /   slide up
| \   slide down
| h   hammer-on
| p   pull-off
| ~   vibrato
| +   harmonic
| x   Mute note
| b   Bend
| pb  Pre-bend
| br  Bend release
| pbr Pre-bend release
| brb Bend release bend

************************************
Tap to rate this tab
# A B C D E F G H I J K L M N O P Q R S T U V W X Y Z