Song name
# A B C D E F G H I J K L M N O P Q R S T U V W X Y Z

Back To School - Wasting Time tab

-----------------------------------------------------------------------------------
			     Wasting Time - Back to School
-----------------------------------------------------------------------------------

Tabbed by:	Back to School
Email:		BacktoSchoolTV@gmx.de

Tuning:		Standard


Intro:

Gitarre 1:
e|----------------------------------------------------------------------|
H|----------------------------------------------------------------------|
G|--------------------6666-7777----------------------------6666-7777----|
D|--77777777-44444444-----------66666666-77777777-44444444-----------6--|
A|----------------------------------------------------------------------|
E|----------------------------------------------------------------------|

Gitarre 2:
e|----------------------------------------------------------------------|
H|--10----------------14---15---9--------10----------------14---15---9--|
G|--11-------11-------14---16---9--------11-------11-------14---16---9--|
D|--11-------12-------14---16---9--------11-------12-------14---16---9--|
A|--9--------12-------12---14---7--------9--------12-------12---14---7--|
E|-----------10-----------------------------------10--------------------|


Vorspiel/Strophe:

Gitarre 1:
e|--------------------------------------------------------|
H|--------------------------------------------------------|
G|--11-x-11-11-x-11-11-1111111111----7-x-7-7-x-7-7-77777--|
D|--11-x-11-11-x-11-11-1111111111----7-x-7-7-x-7-7-77777--|
A|--9--x-9--9--x-9--9--9-9-9-9-9-----5-x-5-5-x-5-5-55555--|
E|--------------------------------------------------------|
    v  v ^  v  v ^  ^  ^ v ^ v ^     v v ^ v v ^ ^ ^v^v^

e|--------------------------------------------------------|
H|--------------------------------------------------------|
G|-------------------------9-x-9-9-x-9-9-99999------------|
D|--7-x-7-7-x-7-7-77777----9-x-9-9-x-9-9-99999------------|
A|--7-x-7-7-x-7-7-77777----7-x-7-7-x-7-7-77777------------|
E|--5-x-5-5-x-5-5-55555-----------------------------------|
    v v ^ v v ^ ^ ^v^v^    v v ^ v v ^ ^ ^v^v^

Gitarre 2:
e|---------------------------------------------------------------------------|
H|--10-x-10-10-x-10-10-1010101010--------------------------------------------|
G|--11-x-11-11-x-11-11-1111111111----11-x-11-11-x-11-11-1111111111-----------|
D|--11-x-11-11-x-11-11-1111111111----12-x-12-12-x-12-12-1212121212-----------|
A|--9--x-9--9--x-9--9--9-9-9-9-9-----12-x-12-12-x-12-12-1212121212-----------|
E|-----------------------------------10-x-10-10-x-10-10-1010101010-----------|
    v  v ^  v  v ^  ^  ^ v ^ v ^     v  v ^  v  v ^  ^  ^ v ^ v ^

e|---------------------------------------------------------------------------|
H|--14-x-14-14-x-14-14-1414141414----9-x-9-9-x-9-9-99999---------------------|
G|--14-x-14-14-x-14-14-1414141414----9-x-9-9-x-9-9-99999---------------------|
D|--14-x-14-14-x-14-14-1414141414----9-x-9-9-x-9-9-99999---------------------|
A|--12-x-12-12-x-12-12-1212121212----7-x-7-7-x-7-7-77777---------------------|
E|---------------------------------------------------------------------------|
    v  v ^  v  v ^  ^  ^ v ^ v ^     v v ^ v v ^ ^ ^v^v^


Strophe:

Gitarre 1/2:
e|--------------------------------------------------------|
H|--------------------------------------------------------|
G|--11-x-11-11-x-11-11-1111111111----7-x-7-7-x-7-7-77777--|
D|--11-x-11-11-x-11-11-1111111111----7-x-7-7-x-7-7-77777--|
A|--9--x-9--9--x-9--9--9-9-9-9-9-----5-x-5-5-x-5-5-55555--|
E|--------------------------------------------------------|
    v  v ^  v  v ^  ^  ^ v ^ v ^     v v ^ v v ^ ^ ^v^v^

e|--------------------------------------------------------|
H|--------------------------------------------------------|
G|-------------------------9-x-9-9-x-9-9-99999------------|
D|--7-x-7-7-x-7-7-77777----9-x-9-9-x-9-9-99999------------|
A|--7-x-7-7-x-7-7-77777----7-x-7-7-x-7-7-77777------------|
E|--5-x-5-5-x-5-5-55555-----------------------------------|
    v v ^ v v ^ ^ ^v^v^    v v ^ v v ^ ^ ^v^v^


Refrain:

Gitarre 1:
e|--------------------------------------------------------|
H|--------------------------------------------------------|
G|--7-7-7777----9-9-9999----11-11-11111111----7-7-7777----|
D|--7-7-7777----9-9-9999----11-11-11111111----7-7-7777----|
A|--5-5-5555----7-7-7777----9--9--9-9-9-9-----5-5-5555----|
E|--------------------------------------------------------|
    v v v^v^    v v v^v^    v  v  v ^ v ^     v v v^v^

e|--------------------------------------------------------|
H|--------------------------------------------------------|
G|--------------9-9-9999----7-7-7777----66-6-6------------|
D|--7-7-7777----9-9-9999----7-7-7777----77-7-7------------|
A|--7-7-7777----7-7-7777----5-5-5555----44-4-4------------|
E|--5-5-5555----------------------------------------------|
    v v v^v^    v v v^v^    v v v^v^    v^ ^ ^

Gitarre 2:
e|--------------------------------------------------------|
H|--------------------------------------------------------|
G|--------------9---6-------------------------6/7\6-------|
D|--7-----------------------7-----------------------------|
A|--------------------------------------------------------|
E|--------------------------------------------------------|

e|--------------------------------------------------------|
H|--------------------------------------------------------|
G|------------------6------------------(b)----------------|
D|--7-----------9-----------7-----------6-----------------|
A|--------------------------------------------------------|
E|--------------------------------------------------------|


Bridge:

Gitarre 1:
e|----------------------------------------------------------------------|
H|----------------------------------------------------------------------|
G|--------------------6666-7777----------------------------6666-7777----|
D|--77777777-44444444-----------66666666-77777777-44444444-----------6--|
A|----------------------------------------------------------------------|
E|----------------------------------------------------------------------|

Gitarre 2:
e|----------------------------------------------------------------------|
H|--10----------------14---15---9--------10----------------14---15---9--|
G|--11-------11-------14---16---9--------11-------11-------14---16---9--|
D|--11-------12-------14---16---9--------11-------12-------14---16---9--|
A|--9--------12-------12---14---7--------9--------12-------12---14---7--|
E|-----------10-----------------------------------10--------------------|

e|---------------------------------------------------------------------------|
H|--10-x-10-10-x-10-10-1010101010--------------------------------------------|
G|--11-x-11-11-x-11-11-1111111111----11-x-11-11-x-11-11-1111111111-----------|
D|--11-x-11-11-x-11-11-1111111111----12-x-12-12-x-12-12-1212121212-----------|
A|--9--x-9--9--x-9--9--9-9-9-9-9-----12-x-12-12-x-12-12-1212121212-----------|
E|-----------------------------------10-x-10-10-x-10-10-1010101010-----------|
    v  v ^  v  v ^  ^  ^ v ^ v ^     v  v ^  v  v ^  ^  ^ v ^ v ^

e|---------------------------------------------------------------------------|
H|--14-x-14-14-x-14-14-1414141414----9-x-9-9-x-9-9-99999---------------------|
G|--14-x-14-14-x-14-14-1414141414----9-x-9-9-x-9-9-99999---------------------|
D|--14-x-14-14-x-14-14-1414141414----9-x-9-9-x-9-9-99999---------------------|
A|--12-x-12-12-x-12-12-1212121212----7-x-7-7-x-7-7-77777---------------------|
E|---------------------------------------------------------------------------|
    v  v ^  v  v ^  ^  ^ v ^ v ^     v v ^ v v ^ ^ ^v^v^


Ende:

Gitarre 1:
e|-----|
H|-----|
G|-----|
D|--7--|
A|--7--|
E|--5--|

Gitarre 2:
e|-------------------|
H|-------------------|
G|------6--7---6-----|
D|--7-9-----------9--|
A|-------------------|
E|-------------------|



Ablauf:		
Intro
Vorspiel/Strophe
Strophe
Refrain
Vorspiel/Strophe
Strophe
Refrain 2x
Bridge
Refrain 2x
Ende
		

************************************
| v   brush down
| ^   brush up
| /   slide up
| \   slide down
| h   hammer-on
| p   pull-off
| ~   vibrato
| +   harmonic
| x   Mute note
| b   Bend
| pb  Pre-bend
| br  Bend release
| pbr Pre-bend release
| brb Bend release bend

************************************
Tap to rate this tab
 
# A B C D E F G H I J K L M N O P Q R S T U V W X Y Z