Song name
# A B C D E F G H I J K L M N O P Q R S T U V W X Y Z

Back To School - Rockstar tab

-----------------------------------------------------------------------------------
			     Rockstar - Back to School
-----------------------------------------------------------------------------------

Tabbed by:	Back to School
Email:		BacktoSchoolTV@gmx.de

Tuning:		Standard


Intro:

Gitarre 1:
e|-------------------------------------------------------------------|
H|-------------------------------------------------------------------|
G|----------------------------------------------------------0---2----|
D|------3---2---3/5-----5---3---5/7-----7---8---7\3-----3---------3--|	(4x)
A|------------------3-3---3---3-----5-5---5---5-----1-1---1---1------|
E|--1-1---1---1------------------------------------------------------|

Gitarre 2:
e|---------------------------------------|
H|---------------------------------------|
G|-----------5-5-5555-7-7-7777-3-3-3333--|
D|--3-3-3333-5-5-5555-7-7-7777-3-3-3333--|				(2x)
A|--3-3-3333-3-3-3333-5-5-5555-1-1-1111--|
E|--1-1-1111-----------------------------|

    v v v^v^ v v v^v^ v v v^v^ v v v^v^


Strophe:

Gitarre 1:
e|---------------------------------------|
H|---------------------------------------|
G|-----------55555555-77777777-33333333--|
D|--3-333333-55555555-77777777-33333333--|
A|--3-333333-33333333-55555555-11111111--|
E|--1-111111-----------------------------|
      xxxxxx xxxxxxxx xxxxxxxx xxxxxxxx

e|---------------------------------------|
H|---------------------------------------|
G|-----------55555555-77777777-33333333--|
D|--33333333-55555555-77777777-33333333--|
A|--33333333-33333333-55555555-11111111--|
E|--11111111-----------------------------|
    xxxxxxxx xxxxxxxx xxxxxxxx xxxxxxxx

e|---------------------------------------------------------------|
H|---------------------------------------------------------------|
G|------------55-5-55-5-77-7-77-7-33-3-33-3-55-5-55-5-55-5-55-5--|
D|--33-3-33-3-55-5-55-5-77-7-77-7-33-3-33-3-55-5-55-5-55-5-55-5--|
A|--33-3-33-3-33-3-33-3-55-5-55-5-11-1-11-1-33-3-33-3-33-3-33-3--|
E|--11-1-11-1----------------------------------------------------|
    xx   xx   xx   xx   xx   xx   xx   xx   xx   xx   xx   xx


Refrain:

Gitarre 1:
e|---------------------------------------|
H|---------------------------------------|
G|--7-7-7777-3-3-3333----------5-5-5555--|
D|--7-7-7777-3-3-3333-3-3-3333-5-5-5555--|				(2x)
A|--5-5-5555-1-1-1111-3-3-3333-3-3-3333--|
E|--------------------1-1-1111-----------|

    v v v^v^ v v v^v^ v v v^v^ v v v^v^

e|---------------------------------------|
H|---------------------------------------|
G|--77777777-33333333----------55555555--|
D|--77777777-33333333-33333333-55555555--|
A|--55555555-11111111-33333333-33333333--|
E|--------------------11111111-----------|

    v^v^v^v^ v^v^v^v^ v^v^v^v^ v^v^v^v^

e|--------------------------------------------------------|
H|--------------------------------------------------------|
G|--77777777-33333333----------55555555-3333333333333333--|
D|--77777777-33333333-33333333-55555555-3333333333333333--|
A|--55555555-11111111-33333333-33333333-1111111111111111--|
E|--------------------11111111----------------------------|

    v^v^v^v^ v^v^v^v^ v^v^v^v^ v^v^v^v^ v^v^v^v^v^v^v^v^


Gitarre 2:
e|---------------------------------------------------------------------------|
H|---------------------------------------------------------------------------|
G|--7-7-7-9-9-10-10-10-10-12-12-14-14-14-14-15-15-12-12-12-12-12-12-12-------|
D|--x-x-x-x-x-x--x--x--x--x--x--x--x--x--x--x--x--x--x--x--x--x--x--x--------|
A|--5-5-5-7-7-8--8--8--8--10-10-12-12-12-12-13-13-10-10-10-10-10-10-10-------|
E|---------------------------------------------------------------------------|

    v v v ^ v ^  v  v  v  ^  v  ^  v  v  v  ^  v  ^  v  v  v  ^  v  ^

e|---------------------------------------------------------------------------|
H|---------------------------------------------------------------------------|
G|--7-7-7-9-9\3-3-3-3-3-3-3/10-10-10-10-10-10-9-9-9-9-9-9--------------------|
D|--x-x-x-x-x\x-x-x-x-x-x-x/x--x--x--x--x--x--x-x-x-x-x-x--------------------|
A|--5-5-5-7-7\1-1-1-1-1-1-1/8--8--8--8--8--8--7-7-7-7-7-7--------------------|
E|---------------------------------------------------------------------------|

    v v v ^ v   v v v ^ v ^    v  v  ^  v  ^  v v v ^ v ^

e|---------------------------------------------------------------------------|
H|---------------------------------------------------------------------------|
G|--7-7-7-9-9-10-10-10-10-12-12-14-14-14-14-15-15-12-12-12-12-12-12-12-------|
D|--x-x-x-x-x-x--x--x--x--x--x--x--x--x--x--x--x--x--x--x--x--x--x--x--------|
A|--5-5-5-7-7-8--8--8--8--10-10-12-12-12-12-13-13-10-10-10-10-10-10-10-------|
E|---------------------------------------------------------------------------|

    v v v ^ v ^  v  v  v  ^  v  ^  v  v  v  ^  v  ^  v  v  v  ^  v  ^

e|---------------------------------------------------------------------------|
H|---------------------------------------------------------------------------|
G|--7-7-7-9-9\3-3-3-3-3-3-3-5-5-5-5-5-5-9-9-9-9-9-9-10-10-10-10-10-10--------|
D|--x-x-x-x-x\x-x-x-x-x-x-x-x-x-x-x-x-x-x-x-x-x-x-x-x--x--x--x--x--x---------|
A|--5-5-5-7-7\1-1-1-1-1-1-1-3-3-3-3-3-3-7-7-7-7-7-7-8--8--8--8--8--8---------|
E|---------------------------------------------------------------------------|

    v v v ^ v   v v v ^ v ^ v v v ^ v ^ v v v ^ v ^ v  v  v  ^  v  ^


Solo:

Gitarre 1:
e|---------------------------------------|
H|---------------------------------------|
G|-----------5-5-5555-7-7-7777-3-3-3333--|
D|--3-3-3333-5-5-5555-7-7-7777-3-3-3333--|				(4x)
A|--3-3-3333-3-3-3333-5-5-5555-1-1-1111--|
E|--1-1-1111-----------------------------|

    v v v^v^ v v v^v^ v v v^v^ v v v^v^


Gitarre 2:
e|--------------------------------------------------------------------------------|
H|---------------------------(b)------6-6/10-10-10-11-10-8------------------------|
G|---------(b)----5-5-----5-7-7-5-5-7----------------------10/12-10-12-12/14------|
D|------3-5-5-3-3-----5-7---------------------------------------------------------|
A|--3-5---------------------------------------------------------------------------|
E|--------------------------------------------------------------------------------|

e|--------------------------------------------------------------12-12/13-12-10-12-|
H|----------------------------------(bb)------13-13-13/15-13-15-------------------|
G|--12-10-12-------------------10-12-12-10-10-------------------------------------|
D|-----------10-12-12----10-12----------------------------------------------------|
A|--------------------------------------------------------------------------------|
E|--------------------------------------------------------------------------------|

e|--------------------------------------------------------------------------------|
H|-------------(bb)------13-13-13/15-13-15-15/17-17/18-17-18-18/20-18-------------|
G|--------10-12-12-10-10----------------------------------------------------------|
D|--10-12-------------------------------------------------------------------------|
A|--------------------------------------------------------------------------------|
E|--------------------------------------------------------------------------------|


Ablauf:
Intro
Strophe
Refrain
Intro
Strophe
Refrain
Solo
Strophe
Refrain


************************************
| v   brush down
| ^   brush up
| /   slide up
| \   slide down
| h   hammer-on
| p   pull-off
| ~   vibrato
| +   harmonic
| x   Mute note
| b   Bend
| pb  Pre-bend
| br  Bend release
| pbr Pre-bend release
| brb Bend release bend

************************************
Tap to rate this tab
# A B C D E F G H I J K L M N O P Q R S T U V W X Y Z