Song name
# A B C D E F G H I J K L M N O P Q R S T U V W X Y Z

Back To School - Nie Wieder tab

-----------------------------------------------------------------------------------
			     Nie Wieder - Back to School
-----------------------------------------------------------------------------------

Tabbed by:	Back to School
Email:		BacktoSchoolTV@gmx.de

Tuning:		Standard
	

Intro

Gitarre 1:
e|-----------------------------------------------------------------|
H|-----------------------------------------------------------------|
G|----------3/4--4-------------------------------------------------|
D|------4----------4----------4-------------------------------4----|	(1x)
A|--2-2---2---------------2-------------6---7---6---------2--------|
E|-------------------0--0---0------4--4---4---4---4--0--0---0------|


Strophe:

Gitarre 1:
e|---------------------------------------------------------------------------|
H|---------------------------------------------------------------------------|
G|--4-444444----------------------------44444444-----------------------------|
D|--4-444444-22222222-66666666-22222222-44444444-22222222-66666666-22222222--|		
A|--2-222222-22222222-66666666-22222222-22222222-22222222-66666666-22222222--|
E|-----------00000000-44444444-00000000----------00000000-44444444-00000000--|
      xxxxxx xxxxxxxx xxxxxxxx xxxxxxxx xxxxxxxx xxxxxxxx xxxxxxxx xxxxxxxx
    v vvvvvv vvvvvvvv vvvvvvvv vvvvvvvv vvvvvvvv vvvvvvvv vvvvvvvv vvvvvvvv
    
e|---------------------------------------------------------------------------|
H|---------------------------------------------------------------------------|
G|--4-444444---------------------------------------3/4--4--------------------|
D|--4-444444-22222222-66666666-22222222--------4----------4----------4-------|	
A|--2-222222-22222222-66666666-22222222----2-2---2---------------2-----------|
E|-----------00000000-44444444-00000000---------------------0--0---0---------|
      xxxxxx xxxxxxxx xxxxxxxx xxxxxxxx 
    v vvvvvv vvvvvvvv vvvvvvvv vvvvvvvv

Gitarre 2:
e|--2--------0--------4--------0--------2--------0--------4--------0---------|
H|--4--------0--------4--------0--------4--------0--------4--------0---------|
G|--4--------1--------4--------1--------4--------1--------4--------1---------|
D|--4--------2--------6--------2--------4--------2--------6--------2---------|
A|--2--------2--------6--------2--------2--------2--------6--------2---------|
E|--x--------0--------4--------0--------x--------0--------4--------0---------|
    v        v        v        v        v        v        v        v

e|--2----2---0--------4--------0--------2------------------------------------|
H|--4------2-0--------4----4---0--------4------------------------------------|
G|--4--------1--------4------4-1--------4----------------------6-6-6-6-------|
D|--4--------2--------6--------2--------4----------------------6-6-6-6-------|
A|--2--------2--------6--------2--------2----------------------4-4-4-4-------|
E|--x--------0--------4--------0--------x------------------------------------|
                                                               x x x x
    v        v        v        v        v


Refrain

Gitarre 1:
e|---------------------------------------|
H|---------------------------------------|
G|--66666666-99999999-44444444-----------|
D|--66666666-99999999-44444444-44444444--|				(2x)
A|--44444444-77777777-22222222-44444444--|
E|-----------------------------22222222--|
    v^vvv^v^ v^vvv^v^ v^vvv^v^ v^vvv^v^

e|-----|
H|-----|
G|--4--|
D|--4--|
A|--2--|
E|-----|

Gitarre 2:
e|-------------------------------------------------|
H|--------777-------------------7777---------------|
G|--44444-----4444-4-6-4-6-4444------6666-4-6-4-6--|
D|-------------------------------------------------|
A|-------------------------------------------------|
E|-------------------------------------------------|
     
e|-------------------------------------------------|
H|--------777-------------------7777---------------|
G|--44444-----4444-4-6-4-6-4444------66666-4-6-----|
D|-------------------------------------------------|
A|-------------------------------------------------|
E|-------------------------------------------------|

Gedudel nach dem 2. Refrain
e|-----------------------------------------------------|
H|------5-----5-----7-----7-----4-----4----------------|
G|------------------------------------------3-----3----|
D|----6-----6-----9-----9-----4-----4-----4-----4------|		(2x)
A|--4-----4-----7-----7-----2-----2--------------------|
E|--------------------------------------2-----2-----2--|

e|-----|
H|-----|
G|-----|
D|--2--|
A|--2--|
E|--0--|


Bridge:

2. Gitarre
e|--------------------------------------|
H|--------------------------------------|
G|--66-666---------444-444--------------|
D|--66-666-222-222-444-444-444-44-22----|				(4x)
A|--44-444-222-222-222-222-444-44-22----|
E|---------000-000---------222-22-00----|


Solo:

Gitarre 1:
e|---------------------------------------|
H|---------------------------------------|
G|--66666666-99999999-44444444-----------|
D|--66666666-99999999-44444444-44444444--|				(4x)
A|--44444444-77777777-22222222-44444444--|
E|-----------------------------22222222--| 

e|-----|
H|-----|
G|--4--|
D|--4--|
A|--2--|
E|-----|

Gitarre 2:
e|---------------------------------------------------14-------11------|
H|--777------------(b)------11-12-14-12-11-12--11/12----11/12---------|
G|------666-88-4444-6-4--11-------------------------------------------|
D|--------------------------------------------------------------------|	(3x)
A|--------------------------------------------------------------------|
E|--------------------------------------------------------------------|

e|--------------------------------------------------------------------|
H|--777------------(b)------11-12-14-12-11-12--11---------------------|
G|------666-88-4444-6-4--11-----------------------13-11---------------|
D|------------------------------------------------------13-11-9-11-9--|	(1x)
A|--------------------------------------------------------------------|
E|--------------------------------------------------------------------|


Ablauf:		Intro 	(2x)	
		Strophe		
		Refrain
		Intro	(1x)
		Strophe
		Refrain	(2x)
		Bridge
		Refrain (2x)
		Solo/Outro


************************************
| v   brush down
| ^   brush up
| /   slide up
| \   slide down
| h   hammer-on
| p   pull-off
| ~   vibrato
| +   harmonic
| x   Mute note
| b   Bend
| pb  Pre-bend
| br  Bend release
| pbr Pre-bend release
| brb Bend release bend

************************************
Tap to rate this tab
# A B C D E F G H I J K L M N O P Q R S T U V W X Y Z