Song name
# A B C D E F G H I J K L M N O P Q R S T U V W X Y Z

Back To School - Explodieren tab

-----------------------------------------------------------------------------------
			     Explodieren - Back to School
-----------------------------------------------------------------------------------

Tabbed by:	Back to School
Email:		BacktoSchoolTV@gmx.de

Tuning:		Standard


Intro/Strophe:

Gitarre 1:
e|---------------------------------------|
H|---------------------------------------|
G|--4-4-4-44-----------------------------|
D|--4-4-4-44-4-4-4-44-5-5-5-55-7-7-7-77--|		(3x)
A|--2-2-2-22-4-4-4-44-5-5-5-55-7-7-7-77--|
E|-----------2-2-2-22-3-3-3-33-5-5-5-55--|
    x x   xx x x   xx x x   xx x x   xx
    v v v v^ v v v v^ v v v v^ v v v v^

e|---------------------------------------|
H|---------------------------------------|
G|--4-4-4-44-----------------------------|
D|--4-4-4-44-4-4-4-44-5-5-5-55-7-7-7-----|
A|--2-2-2-22-4-4-4-44-5-5-5-55-7-7-7-----|
E|-----------2-2-2-22-3-3-3-33-5-5-5-----|
    x x   xx x x   xx x x   xx x x   
    v v v v^ v v v v^ v v v v^ v v v 

Gitarre 2:
e|---------------------------------------------------------------------|
H|---------------------------------------------------------------------|
G|--6-7-7-6-6-7-7-----6-7-7-6-7-9-9-----6-7-7-6-6-7-7-----6-7-7-6------|
D|----------------------------------------------------------------7----|(4x)
A|------------------------------------------------------------------9--|
E|---------------------------------------------------------------------|
    x x x x x x x     x x x x x x x     x x x x x x x     x x x x x x 


Refrain:

Gitarre 1/2:
e|-------------------------------------|
H|-------------------------------------|
G|-----------7-7-7777-2-2-2222---------|
D|--5-5-5555-7-7-7777-2-2-2222-2-2-24--|
A|--5-5-5555-5-5-5555-0-0-0000-2-2-24--|
E|--3-3-3333-------------------0-0-02--|

    v v v^v^ v v v^v^ v v v^v^ v v v^

e|------------------------------------------------|
H|------------------------------------------------|
G|-----------7-7-7777-2-2-2222------------(4x)----|
D|--5-5-5555-7-7-7777-2-2-2222-2-2-24---5-5-5555--|
A|--5-5-5555-5-5-5555-0-0-0000-2-2-24---5-5-5555--|
E|--3-3-3333-------------------0-0-02---3-3-3333--|

    v v v^v^ v v v^v^ v v v^v^ v v v^   v v v^v^


Interlude:

Gitarre 1:
e|---------------------------------------|
H|---------------------------------------|
G|-----------7-7-7777-2-2-2222-----------|
D|--5-5-5555-7-7-7777-2-2-2222-2-2-2222--|
A|--5-5-5555-5-5-5555-0-0-0000-2-2-2222--|
E|--3-3-3333-------------------0-0-0000--|

    v v v^v^ v v v^v^ v v v^v^ v v v^v^

e|------------------------------------------------|
H|------------------------------------------------|
G|-----------7-7-7777-2-2-2222------------(3x)----|
D|--5-5-5555-7-7-7777-2-2-2222-2-2-2222-5-5-5555--|
A|--5-5-5555-5-5-5555-0-0-0000-2-2-2222-5-5-5555--|
E|--3-3-3333-------------------0-0-0000-3-3-3333--|

    v v v^v^ v v v^v^ v v v^v^ v v v^v^ v v v^v^

Gitarre 2:
e|------------------------------------------------|
H|------------------------------------------------|
G|----------(b)------14-14---------(b)------------|
D|-----------14---12----------------14---12-------|
A|--12-14-12---------------12-14-12-----------14--|
E|------------------------------------------------|

e|----------------------------------------------------------|
H|-----------------------------------------------------(b)--|
G|----------(b)------14-14---------(b)------------------14--|
D|-----------14---12----------------14---12-----------------|
A|--12-14-12---------------12-14-12-----------14---12-------|
E|----------------------------------------------------------|


Strophe 2:

Gitarre 1:
e|---------------------------------------|
H|---------------------------------------|
G|--4-4-4-44-----------------------------|
D|--4-4-4-44-4-4-4-44-5-5-5-55-7-7-7-77--|		(3x)
A|--2-2-2-22-4-4-4-44-5-5-5-55-7-7-7-77--|
E|-----------2-2-2-22-3-3-3-33-5-5-5-55--|
    x x   xx x x   xx x x   xx x x   xx
    v v v v^ v v v v^ v v v v^ v v v v^

e|---------------------------------------|
H|---------------------------------------|
G|--4-4-4-44-----------------------------|
D|--4-4-4-44-4-4-4-44-5-5-5-55-7-7-7-----|
A|--2-2-2-22-4-4-4-44-5-5-5-55-7-7-7-----|
E|-----------2-2-2-22-3-3-3-33-5-5-5-----|
    x x   xx x x   xx x x   xx x x   
    v v v v^ v v v v^ v v v v^ v v v 

Gitarre 2:
e|---------------------------------------|
H|---------------------------------------|
G|--11-11----7-7------12-12-12-11-11-9---|
D|--x--x-----x-x------x--x--x--x--x--x---|		(4x)
A|--9--9-----5-5------10-10-10-9--9--7---|
E|---------------------------------------|


Bridge:

Akustik: H - D - G - A


Solo:

Gitarre 1:
e|-------------------------------------|
H|-------------------------------------|
G|-----------7-7-7777-2-2-2222---------|
D|--5-5-5555-7-7-7777-2-2-2222-2-2-24--|
A|--5-5-5555-5-5-5555-0-0-0000-2-2-24--|
E|--3-3-3333-------------------0-0-02--|

    v v v^v^ v v v^v^ v v v^v^ v v v^   

e|---------------------------------------------------------|
H|---------------------------------------------------------|
G|-----------7-7-7777-2-2-2222-----------------------------|
D|--5-5-5555-7-7-7777-2-2-2222-2-2-24---5-5-5555-7-7-7777--|
A|--5-5-5555-5-5-5555-0-0-0000-2-2-24---5-5-5555-7-7-7777--|
E|--3-3-3333-------------------0-0-02---3-3-3333-5-5-5555--|

    v v v^v^ v v v^v^ v v v^v^ v v v^   v v v^v^ v v v^v^

Gitarre 2:
e|------------------------------------------------|
H|------------------------------------------------|
G|------11/12--11-9-7-9--9--9/11--9-7-6--7\6------|
D|--9----------------------------------------7/9--|
A|------------------------------------------------|
E|------------------------------------------------|

e|------------------------------------------------------------------|
H|-----------------------------------------------10-12-10-12-12/14--|
G|--11/12--11-9-7-9--9--9/11--9-7-6--7\6-9/12-----------------------|
D|------------------------------------------------------------------|
A|------------------------------------------------------------------|
E|------------------------------------------------------------------|


Ende:

Gitarre 1/2:
e|-------|
H|-------|
G|--7-7--|
D|--7-7--|
A|--5-5--|
E|-------|


Ablauf:		

Intro/Strophe
Refrain
Interlude
Intro/Strophe 2
Refrain
Interlude
Bridge/Refrain
Solo
Refrain
Interlude 2x
Ende


************************************
| v   brush down
| ^   brush up
| /   slide up
| \   slide down
| h   hammer-on
| p   pull-off
| ~   vibrato
| +   harmonic
| x   Mute note
| b   Bend
| pb  Pre-bend
| br  Bend release
| pbr Pre-bend release
| brb Bend release bend

************************************
Tap to rate this tab
# A B C D E F G H I J K L M N O P Q R S T U V W X Y Z