Song name
# A B C D E F G H I J K L M N O P Q R S T U V W X Y Z

Back To School - My Favourite Melody tab

-----------------------------------------------------------------------------------
		My Favourite Melody - Back to School
-----------------------------------------------------------------------------------

Tabbed by:	Back to School
Email:		BacktoSchoolTV@gmx.de

Tuning:		Standard


Intro


Strophe 1:

Gitarre 1:
e|-------------------------------------------------------------------|
H|--------------------------------------4-------4--------------------|
G|------4-------4-------1-------1-------4-------4-------3-------3----|
D|------6-------6-------2-------2-----------------------4-------4----|		(3x)
A|----------------------------------2-2---2-2-2---2------------------|
E|--4-4---4-4-4---4-0-0---0-0-0---0-----------------2-2---2-2-2---2--|


Refrain:

Gitarre 1/2:
e|---------------------------------------------------------------------------|
H|---------------------------------------------------------------------------|
G|--------------------------------------------------------6-6-6666-6-6-6666--|
D|--2-2-2222-4-4-4444-6-6-6666-666-444-2-2222222-4-4-4444-6-6-6666-6-6-6666--|	(2x)
A|--2-2-2222-4-4-4444-6-6-6666-666-444-2-2222222-4-4-4444-4-4-4444-4-4-4444--|
E|--0-0-0000-2-2-2222-4-4-4444-444-222-0-0000000-2-2-2222--------------------|

    v v v^v^ v v v^v^ v v v^v^ ^v^ v^v ^ ^v^v^v^ v v v^v^ v v v^v^ ^ v v^v^

e|---------------------|
H|---------------------|
G|--9-9-9999-9-9-9999--|
D|--9-9-9999-9-9-9999--|
A|--7-7-7777-7-7-7777--|
E|---------------------|

    v v v^v^ ^ v v^v^


2. Strophe

2. Gitarre
e|-----------------------------------------|
H|-----------------------------------------|
G|--888\4-444-4444444-4444444/8-888\6-666--|
D|--xxx\x-xxx-xxxxxxx-xxxxxxx/x-xxx\x-xxx--|
A|--666\2-222-2222222-2222222/6-666\4-444--|
E|-----------------------------------------|


Bridge:

Gitarre 1:
e|-----------------------------------------------------------------|
H|-----------------------------------------------------------------|
G|------------------------888-44444444-88888888--------------------|
D|--6---------------------xxx-44444444-88888888-66666666-44444444--|
A|--6---------------------666-22222222-66666666-66666666-44444444--|
E|--4-------------------------------------------44444444-22222222--|
			      xxxxxxxx xxxxxxxx xxxxxxxx xxxxxxxx
    v                     vvv vvvvvvvv vvvvvvvv vvvvvvvv vvvvvvvv

e|---------------------------------------|
H|---------------------------------------|
G|--44444444-88888888--------------------|
D|--44444444-88888888-66666666-44444444--|
A|--22222222-66666666-66666666-44444444--|
E|--------------------44444444-22222222--|
    xxxxxxxx xxxxxxxx xxxxxxxx xxxxxxxx
    vvvvvvvv vvvvvvvv vvvvvvvv vvvvvvvv

Gitarre 2:
e|-----------------------------------------------|
H|-----------------------------------------------|
G|-------------16--------------------------------|
D|-------16----------16----14----13----14----13--|
A|--1414----14----14----14----14----14----14-----|
E|-----------------------------------------------|
    x x     x     x     x     x     x     x

e|-----------------------------------------------|
H|-------------------------16----------16--------|
G|-------------16----------------16----------16--|
D|-------16----------16--------------------------|
A|--1414----14----14----14----14----14----14-----|
E|-----------------------------------------------|
    x x     x     x     x     x     x     x


Refrain/Ende:

Gitarre 2:
e|----------------------------------------------------------------------------------|
H|----------------------------------------------------------------------------------|
G|-------8/9-8-6-4-6-------------------------8/9-8-6-4-6----------------------------|
D|--6----------------6----6/8-8/9-8-6-9-6----------------6---8-8-9-9--9-9/11-9-8-6--|	(4x)
A|----------------------------------------------------------------------------------|
E|----------------------------------------------------------------------------------|

e|-----------------|
H|-----------------|
G|--8/9-8-6-4-6-4--|
D|-----------------|
A|-----------------|
E|-----------------|


Ende:

Gitarre 1:
e|-----|
H|-----|
G|-----|
D|--6--|	
A|--6--|
E|--4--|


Ablauf:		

Intro
Strophe
Refrain
2. Strophe
Refrain
Bridge
Refrain/Ende	
		

************************************
| v   brush down
| ^   brush up
| /   slide up
| \   slide down
| h   hammer-on
| p   pull-off
| ~   vibrato
| +   harmonic
| x   Mute note
| b   Bend
| pb  Pre-bend
| br  Bend release
| pbr Pre-bend release
| brb Bend release bend

************************************
Tap to rate this tab
 
# A B C D E F G H I J K L M N O P Q R S T U V W X Y Z