Song name
# A B C D E F G H I J K L M N O P Q R S T U V W X Y Z

Back To School - Sommercraft tab

-----------------------------------------------------------------------------------
			     SommerCraft - Back to School
-----------------------------------------------------------------------------------

Tabbed by:	Back to School
Email:		BacktoSchoolTV@gmx.de

Tuning:		Standard


Intro/Strophe:

Gitarre 1/2:
e|-------------------------------------------|
H|-------------------------------------------|
G|------------7-x-7--xx-----------9-x-9--xx--|
D|--7-x-7--xx-7-x-7--xx-7-x-7--xx-9-x-9--xx--|
A|--7-x-7--xx-5-x-5--xx-7-x-7--xx-7-x-7--xx--|
E|--5-x-5--xx-----------5-x-5--xx------------|

    v v ^  v^ v v ^  v^ v v ^  v^ v v ^  v^

e|-------------------------------------------|
H|-------------------------------------------|
G|------------7-x-7--xx------9-xx------------|
D|--7-x-7--xx-7-x-7--xx-7-xx-9-xx-7-xxxxxx---|
A|--7-x-7--xx-5-x-5--xx-7-xx-7-xx-7-xxxxxx---|
E|--5-x-5--xx-----------5-xx------5-xxxxxx---|

    v v ^  v^ v v ^  v^ v v^ v v^ v v^v^v^

e|-------------------------------------------|
H|-------------------------------------------|
G|------------7-x-7--xx-----------9-x-9--xx--|
D|--7-x-7--xx-7-x-7--xx-7-x-7--xx-9-x-9--xx--|
A|--7-x-7--xx-5-x-5--xx-7-x-7--xx-7-x-7--xx--|
E|--5-x-5--xx-----------5-x-5--xx------------|

    v v ^  v^ v v ^  v^ v v ^  v^ v v ^  v^

e|-------------------------------------------|
H|-------------------------------------------|
G|------------7-x-7--xx-----------9-9-9999---|
D|--7-x-7--xx-7-x-7--xx-7-x-7--xx-9-9-9999---|
A|--7-x-7--xx-5-x-5--xx-7-x-7--xx-7-7-7777---|
E|--5-x-5--xx-----------5-x-5--xx------------|

    v v ^  v^ v v ^  v^ v v ^  v^ v v v^v^

e|----------------------------------------------------------------------------|
H|----------------------------------------------------------------------------|
G|-----------7-7-7777----------9-9-9999----------7-7-7777------9-99-----------|
D|--7-7-7777-7-7-7777-5-5-5555-9-9-9999-7-7-7777-7-7-7777-7-77-9-99-7-777777--|
A|--7-7-7777-5-5-5555-5-5-5555-7-7-7777-7-7-7777-5-5-5555-7-77-7-77-7-777777--|
E|--5-5-5555----------5-5-5555----------5-5-5555----------5-55------5-555555--|


Refrain:

Gitarre 1:
e|---------------------------------------|
H|---------------------------------------|
G|--------------------7-7-7777-----------|
D|--4-4-4444-2-2-2222-7-7-7777-7-7-7777--|		(2x)
A|--4-4-4444-2-2-2222-5-5-5555-7-7-7777--|
E|--2-2-2222-0-0-0000----------5-5-5555--|

    v v v^v^ v v v^v^ v v v^v^ v v v^v^

e|---------------------------------------------|
H|---------------------------------------------|
G|--7-7-7777----------9-9-9999-11-11-11111111--|
D|--7-7-7777-7-7-7777-9-9-9999-11-11-11111111--|
A|--5-5-5555-7-7-7777-7-7-7777-9--9--9-9-9-9---|
E|-----------5-5-5555--------------------------|
 
    v v v^v^ v v v^v^ v v v^v^ v  v  v ^ v ^

e|------------------------------------------------|
H|------------------------------------------------|
G|--7-7-7777----------9-9-9999-7-7-7777-7-7-7777--|
D|--7-7-7777-7-7-7777-9-9-9999-7-7-7777-7-7-7777--|
A|--5-5-5555-7-7-7777-7-7-7777-5-5-5555-5-5-5555--|
E|-----------5-5-5555-----------------------------|

    v v v^v^ v v v^v^ v v v^v^ v v v^v^ v v v^v^ 

Gitarre 2:
e|---------------------------------------------|
H|---------------------------------------------|
G|-------(b)-------(b)--------7-----6----------|
D|--------11--------9------------------7/9--9--|	(2x)
A|--9--9------7--7------5--5-----5-------------|
E|---------------------------------------------|

e|-----------------------------------------------------------------------------|
H|-----------------------------------------------------------------------------|
G|-----9/11--9---6--7--6------------------9/11--9---6--7--6---------99--11-13--|
D|--7---------------------9--7---6/7---7---------------------9--7---xx--x--x---|
A|------------------------------------------------------------------77--9--11--|
E|-----------------------------------------------------------------------------|


Bridge:

Gitarre 1:
e|-------------------------------------------------------------|
H|-------------------------------------------------------------|
G|-------7----9---11-11-11-11-11-11-11111111-7-7-7-7-7-7-7777--|
D|--4----7----9---11-11-11-11-11-11-11111111-7-7-7-7-7-7-7777--|
A|--4----5----7----9--9--9--9--9--9-9-9-9-9--5-5-5-5-5-5-5555--|
E|--2----------------------------------------------------------|

    v    v    v    v  v  v  v  v  v v ^ v ^  v v v v v v v^v^

e|----------------------------------------------------------------------|
H|----------------------------------------------------------------------|
G|--------------------------------------7--9--11--7-----7--9--11--7--9--|
D|--7-7-7-7-7-7-7777-9-9-9-9-9-9-9-9-4--7--9--11--7--4--7--9--11--7--9--|
A|--7-7-7-7-7-7-7777-9-9-9-9-9-9-9-9-4--5--7--9---5--4--5--7--9---5--7--|
E|--5-5-5-5-5-5-5555-7-7-7-7-7-7-7-7-2---------------2------------------|

    v v v v v v v^v^ v v v v v v v v v


Ende:

Gitarre 1/2:
e|------------|
H|------------|
G|--99-7-6-2--|
D|--xx-x-x-2--|
A|--77-5-4-0--|
E|------------|


Ablauf:		

Intro/Strophe
Refrain
Intro/Strophe
Refrain
Bridge
Refrain 2x
Ende


************************************
| v   brush down
| ^   brush up
| /   slide up
| \   slide down
| h   hammer-on
| p   pull-off
| ~   vibrato
| +   harmonic
| x   Mute note
| b   Bend
| pb  Pre-bend
| br  Bend release
| pbr Pre-bend release
| brb Bend release bend

************************************
Tap to rate this tab
# A B C D E F G H I J K L M N O P Q R S T U V W X Y Z