Song name
# A B C D E F G H I J K L M N O P Q R S T U V W X Y Z

Back To School - Manchmal tab

-----------------------------------------------------------------------------------
			     Manchmal - Back to School
-----------------------------------------------------------------------------------

Tabbed by:	Back to School
Email:		BacktoSchoolTV@gmx.de

Tuning:		Standard


Intro:

Gitarre 1:
e|-------------------------------------------------------------------------------|
H|-------------------------------------------------------------------------------|
G|--8----8----9-99-9999-8----8----9-99-9999--------------------------------------|
D|--9----9----9-99-9999-9----9----9-99-9999---6-6-6662-22-2222-6-6-6662-22-2222--|
A|--6----6----7-77-7777-6----6----7-77-7777---6-6-6662-22-2222-6-6-6662-22-2222--|
E|--------------------------------------------4-4-4440-00-0000-4-4-4440-00-0000--|

    v    v    ^ ^v v^v^ v    v    ^ ^v v^v^   v v v^v^ ^v v^v^ v v v^v^ ^v v^v^

Gitarre 2:
e|-------------------------------------------------------------------------------|
H|-------------------------------------------------------------------------------|
G|--------------------------------------------8888999977774444-8888999944444444--|
D|--------------------------------------------xxxxxxxxxxxxxxxx-xxxxxxxxxxxxxxxx--|
A|--------------------------------------------6666777766662222-6666777722222222--|
E|-------------------------------------------------------------------------------|

                                              v^v^v^v^v^v^v^v^ v^v^v^v^v^v^v^v^


Strophe 1:

Gitarre 1:
e|---------------------------------------|
H|---------------------------------------|
G|--4-4-4444-4-4-4444-4-4-4444-4-4-4444--|
D|--x-x-xxxx-x-x-xxxx-x-x-xxxx-x-x-xxxx--|		(2x)
A|--2-2-2222-1-1-1111-x-x-xxxx-2-2-2222--|
E|--------------------4-4-4444-0-0-0000--|

    v v v^v^ v v v^v^ v v v^v^ v v v^v^

e|----------------------------------------------------------------------------|
H|----------------------------------------------------------------------------|
G|----------------------------------------4-444444444444-4-6-6666-6-----------|
D|--999-6-666666666666-6-2-222222222222-2-4-444444444444-4-6-6666-6-2-2222-2--|
A|--999-6-666666666666-6-2-222222222222-2-2-222222222222-2-4-4444-4-2-2222-2--|
E|--777-4-444444444444-4-0-000000000000-0---------------------------0-0000-0--|
          xxxxxxxxxxxx     xxxxxxxxxxxx     xxxxxxxxxxxx     xxxx     xxxx
    vvv v vvvvvvvvvvvv v v vvvvvvvvvvvv v v vvvvvvvvvvvv v v vvvv v v vvvv v

Gitarre 2:
e|----------------------------------------------------------------------------|
H|----------------------------------------------------------------------------|
G|--8888888888888669-88-888888888888-111111-8-888888888888-66666666-44444444--|
D|--xxxxxxxxxxxxxxxx-xx-xxxxxxxxxxxx-x-x-x--x-xxxxxxxxxxxx-xxxxxxxx-xxxxxxxx--|
A|--6666666666666447-66-666666666666-9-9-9--6-666666666666-44444444-22222222--|
E|----------------------------------------------------------------------------|


Refrain:

Gitarre 1/2:
e|------------------------------------------------------------------------|
H|------------------------------------------------------------------------|
G|--4-4-4-4-4-4-4444-6-6-6-6-6-6-6666-9-9-9-9-9-9-9999-4-4-4444-----------|
D|--4-4-4-4-4-4-4444-6-6-6-6-6-6-6666-9-9-9-9-9-9-9999-4-4-4444-4-4-4444--|
A|--2-2-2-2-2-2-2222-4-4-4-4-4-4-4444-7-7-7-7-7-7-7777-2-2-2222-4-4-4444--|
E|--------------------------------------------------------------2-2-2222--|

    v v v v v v v^v^ v v v v v v v^v^ v v v v v v v^v^ v v v^v^ v v v^v^


Strophe 2:

Gitarre 1:
e|---------------------------------------|
H|---------------------------------------|
G|--4-4-4444-4-4-4444-4-4-4444-4-4-4444--|
D|--x-x-xxxx-x-x-xxxx-x-x-xxxx-x-x-xxxx--|		(2x)
A|--2-2-2222-1-1-1111-x-x-xxxx-2-2-2222--|
E|--------------------4-4-4444-0-0-0000--|

    v v v^v^ v v v^v^ v v v^v^ v v v^v^

e|----------------------------------------------------------------------------|
H|----------------------------------------------------------------------------|
G|----------------------------------------4-444444444444-4-6-6666-6-----------|
D|--999-6-666666666666-6-2-222222222222-2-4-444444444444-4-6-6666-6-2-2222-2--|
A|--999-6-666666666666-6-2-222222222222-2-2-222222222222-2-4-4444-4-2-2222-2--|
E|--777-4-444444444444-4-0-000000000000-0---------------------------0-0000-0--|
          xxxxxxxxxxxx     xxxxxxxxxxxx     xxxxxxxxxxxx     xxxx     xxxx
    vvv v vvvvvvvvvvvv v v vvvvvvvvvvvv v v vvvvvvvvvvvv v v vvvv v v vvvv v

Gitarre 2:
e|---------------------------|
H|---------------------------|
G|--8------------------------|
D|------9--------9--------9--|				(4x)
A|----------11-------11------|
E|---------------------------|


Solo:

Gitarre 1:
e|------------------------------------------------------------------------|
H|------------------------------------------------------------------------|
G|------------------------------------4444444444444444--------------------|
D|--6666666666666666-2222222222222222-4444444444444444-44444444-22222222--|	
A|--6666666666666666-2222222222222222-2222222222222222-44444444-22222222--|
E|--4444444444444444-0000000000000000------------------22222222-00000000--|

Gitarre 2:
e|---------------------------------------------------------------------------|
H|---------------------------------------------------------------------------|
G|---------------------------------------------------------------------------|
D|--9-9/11-11/13-13/14-13---9-9/11-11/13-13/14-13/14-14/16-16\13-13\11-11\9--|
A|---------------------------------------------------------------------------|
E|---------------------------------------------------------------------------|

e|----------------------------|
H|----------------------------|
G|----------------------------|
D|--9/11-11/13-13\11-11\9-11--|
A|----------------------------|
E|----------------------------|


Ende:

Gitarre 1:			Gitarre 1/2:
e|-----------------------|	e|-----|
H|-----------------------|	H|-----|
G|--8----8----9-99-9999--|	G|--4--|
D|--9----9----9-99-9999--|	D|--4--|
A|--6----6----7-77-7777--|	A|--2--|
E|-----------------------|	E|-----|

    v    v    ^ ^v v^v^    


Ablauf:		Intro 2x
		Strophe 1
		Refrain
		Intro
		Strophe 2
		Refrain
		Intro
		Solo
		Refrain 2x
		Ende


************************************
| v   brush down
| ^   brush up
| /   slide up
| \   slide down
| h   hammer-on
| p   pull-off
| ~   vibrato
| +   harmonic
| x   Mute note
| b   Bend
| pb  Pre-bend
| br  Bend release
| pbr Pre-bend release
| brb Bend release bend

************************************
Tap to rate this tab
# A B C D E F G H I J K L M N O P Q R S T U V W X Y Z