Guitaretab - guitar tabs
Song name
# A B C D E F G H I J K L M N O P Q R S T U V W X Y Z

Backfire - No Turning Back tab

To know how to play this song, you'd better listen to it first.
These two parts are played in the whole song...
[ Tab from: http://www.guitaretab.com/b/backfire/131679.html ]
e|-------------------------------------------------------------------------|
B|-------------------------------------------------------------------------|
G|---6-4-6-4---------------------------------------------------------------|
D|-6-6-4-6-4-4-------------------------------------------------------------|
A|-6-4-2-4-2-4-------------------------------------------------------------|
E|-4---------2-------------------------------------------------------------|

e|-------------------------------------------------------------------------|
B|-------------------------------------------------------------------------|
G|-------------------------------------------------------------------------|
D|-6-4-4---6-4-6---7-9-7-9-------------------------------------------------|
A|-6-4-4---6-4-6---7-9-7-9-------------------------------------------------|
E|-4-2-6---4-2-4---5-7-5-7-------------------------------------------------|

If you have any questions: flipskatecompany_3@msn.com
Related for No Turning Back tab
Advertisement will be closed in 10 seconds