Guitaretab - guitar tabs
Song name
# A B C D E F G H I J K L M N O P Q R S T U V W X Y Z

Backseat Goodbye - Love Is Free tab

Backseat Goodbye
Love Is Free
Good Morning, Sunshine

It's not on his website so I tabbed it

I'm pretty sure it's right, I play it all the time and it sounds just like the recording

no capo

Intro

e|---------------------------|
B|---------------------------|
G|---2---2--(X7)-----2---2---|
D|-----2---------------2-----|
A|-----------------2---------|
E|-0-------------------------|

Verses

e|---------------------------|
B|-------2-----------(X2)----|
G|---2-------2---2-----------|
D|-----2---2---2-------------|
A|-0-------------------------|
E|---------------------------|
[ Tab from: http://www.guitaretab.com/b/backseat-goodbye/157301.html ]
e|---------------------------|
B|-------2-------------------|
G|---2-------2---2---(X2)----|
D|-0---2---2---2-------------|
A|---------------------------|
E|---------------------------|

this a a bit of a stretch for your pinky, but it's possible...

e|---------------------------|
B|-------2-------------------|
G|---2-------2---2---(X2)----|
D|-----2---2---2-------------|
A|-4-------------------------|
E|---------------------------|

e|---------------------------|
B|-------2-------------------|
G|---2-------2---2-----------|
D|-0---2---2---2-------------|
A|---------------------------|
E|---------------------------|

e|---------------------------|
B|---------------------------|
G|---2---2-----2---2---------|
D|-----2---------2-----------|
A|-----------2---------------|
E|-0-------------------------|

then just start the verse over and thats the whole song
Related for Love Is Free tab
Advertisement will be closed in 10 seconds