Guitaretab - guitar tabs
Song name
# A B C D E F G H I J K L M N O P Q R S T U V W X Y Z

Backseat Goodbye - Lucky Lucky Me tab

Capo on 1st Fret
[ Tab from: http://www.guitaretab.com/b/backseat-goodbye/159133.html ]
Intro/Verses
e----------------------------|
B----------------------------|
G----------------------------|
D------0-------4---2---------|
A----2---0---5---3-----------|
E--3-------------------------|

Chorus
e----------------------------|
B-------------0--------------|
G------0------------0--------|
D-----------4-----2----------|
A----2----5-----3------------|
E--3-------------------------|
Related for Lucky Lucky Me tab