Song name
# A B C D E F G H I J K L M N O P Q R S T U V W X Y Z

Backseat Goodbye - Still Life tab

Capo on 1st Fret

Into/Verses
e--0--0------|
B--0--0------|
G--1--1------|
D--2--2------|
A--2--x------|
E--0--2------|

Chorus
e--0--0--0--0--0--0--0--0--|
B--2--0--2--0--2--0--2--0--|
G--2--1--2--1--2--1--2--4--|
D--2--2--2--2--2--2--2--4--|
A-----2-----2-----2-----2--|
E-----0-----0-----0-----0--|

Bridge
e--0--0--|
B--0--2--|
G--1--2--|
D--2--2--|
A--0-----|
E--0-----|
Tap to rate this tab
 
# A B C D E F G H I J K L M N O P Q R S T U V W X Y Z