Song name
# A B C D E F G H I J K L M N O P Q R S T U V W X Y Z

Backseat Goodbye - Boys Girls Sing tab

"Boys, Girls, Sing!"
Backseatgoodbye-Chad Sugg
Standard Tuning
http://www.backseatgoodbye.com

Into/Verse/Pre-Chorus
e--------------------|
B--------------------|
G--5--------5--10--7-|
D--5--3--5--5--10--7-|
A--3--3--5--3--8---5-|
E-----1--3-----------|

e--------------------|
B--------------------|
G--5--------5--------|
D--5--3--5--5--7---5-|
A--3--3--5--3--7---5-|
E-----1--3-----5---3-|

Chorus
e--------------|
B--------------|
G--5-----5-----|
D--5--3--5--5--|
A--3--3--3--5--|
E-----1-----3--|
"So let's join them...."


e--------------------|
B--------------------|
G--5--------5--------|
D--5--3--5--5--7---5-|
A--3--3--5--3--7---5-|
E-----1--3-----5---3-|
"Yeah let's fall in love..."
Tap to rate this tab
# A B C D E F G H I J K L M N O P Q R S T U V W X Y Z