Song name
# A B C D E F G H I J K L M N O P Q R S T U V W X Y Z

Backseat Goodbye - Technicolor Eyes tab

"Technicolor Eyes"
Backseatgoodbye-Chad Sugg
Standard Tuning
http://www.backseatgoodbye.com


Capo on 1st fret

Into/Verse/Chorus
e----------------------|
B----3---3---3---3-----|
G----4---4---4---4-----|
D----------------------|
A----------------------|
E--3---3---3---3-------|

e----------------------|
B----3---3---3---3-----|
G----4---4---4---4-----|
D----------------------|
A--3---3---3---3-------|
E----------------------|

(Here's how to play the small fills)
e----------------------|
B----3---3---3---5p3---|
G----4---4---4---4---4-|
D----------------------|
A----------------------|
E--3---3---3---3-------|

e------------5p0---5p0---|
B----3---3---3---3-----3-|
G----4---4---4-----------|
D------------------------|
A--3---3-----------------|
E------------------------|
Tap to rate this tab
# A B C D E F G H I J K L M N O P Q R S T U V W X Y Z