Song name
# A B C D E F G H I J K L M N O P Q R S T U V W X Y Z

Backseat Goodbye - Under This Sky With You tab

"Under This Sky With You"
Backseatgoodbye-Chad Sugg
Standard Tuning
http://www.backseatgoodbye.com

Capo on 8th Fret

Intro/Verse Chords
e--0-0-0-0-------------|
B--1-1-1-1-------------|
G--2-0-0-0-------------|
D--3-3-2-0-------------|
A------3-3-------------|
E----------------------|

Chorus Chords
e--3-3----------------|
B--3-3----------------|
G--0-0----------------|
D--0-2----------------|
A--2-3----------------|
E--3------------------|
Tap to rate this tab
# A B C D E F G H I J K L M N O P Q R S T U V W X Y Z