Song name
# A B C D E F G H I J K L M N O P Q R S T U V W X Y Z

Backseat Goodbye - 32 Ways To Make You Smile tab

*******Capo on the 6th fret**********

Introduction
e-----------------------3p2p0-|
B-----3-----3-----3-----------|
G-----0-----0-----0-----------|
D-----------------------------|
A-----------------------------|
E--3-----3-----3-----3--------|

e------------------3h5-5p3----------|
B-----3-----3--3/5---------3h5p3p0--|
G-----0-----0-----------------------|
D-----------------------------------|
A--3-----3--------------------------|
E-----------------------------------|

e-----------------------3p2p0-|
B-----3-----3-----3-----------|
G-----0-----0-----0-----------|
D-----------------------------|
A-----------------------------|
E--3-----3-----3-----3--------|

e-----3-----3--3--|
B-----3-----3--3--|
G--------------0--|
D--------------2--|
A--3-----3-----3--|
E-----------------|

First & Second Verse
e---------------------------|
B-----3-----3-----3-----3---|
G-----0-----0-----0-----0---|
D---------------------------|
A---------------------------|
E--3-----3-----3-----3------|
"You told me 32 ways..."

e---------------------------|
B-----3-----3-----3-----3---|
G-----0-----0-----0-----0---|
D---------------------------|
A--3-----3-----3-----3------|
E---------------------------|
"I did 31 within the first hour..."

e---------------------------|
B-----3-----3-----3-----3---|
G-----0-----0-----0-----0---|
D---------------------------|
A---------------------------|
E--3-----3-----3-----3------|
"You stood amazed..."

e---------------------------|
B-----3-----3-----3-----3---|
G-----0-----0-----0-----0---|
D---------------------------|
A--3-----3-----3-----3------|
E---------------------------|
"Bewildered but willing..."

e---------------------------|
B-----3-----3-----3-----3---|
G-----0-----0-----0-----0---|
D---------------------------|
A---------------------------|
E--3-----3-----3-----3------|
"So I grabbed your cold hand..."

e----------------3---------|
B-----3-----3----3---------|
G-----0-----0----0---------|
D----------------2---------|
A--3-----3-------3---------|
E--------------------------|
"Pressed it to my beating heart and said..."

e---------------------------|
B-----3-----3-----3-----3---|
G-----0-----0-----0-----0---|
D---------------------------|
A---------------------------|
E--3-----3-----3-----3------|
"Isn't it neat..."

e---------------------------|
B-----3-----3-----3-----3---|
G-----0-----0-----0-----0---|
D---------------------------|
A---------------------------|
E--3-----3-----3-----3------|
"How our bodies tick..."

e---------------------------|
B-----3-----3-----3-----3---|
G-----0-----0-----0-----0---|
D---------------------------|
A---------------------------|
E--3-----3-----3-----3------|
"And we can move our feet..."

e----------------3---------|
B-----3-----3----3---------|
G-----0-----0----0---------|
D----------------2---------|
A--3-----3-------3---------|
E--------------------------|
"Whenever and however we please..."

Other Verses and Outro
e--3-----3--|
B--3-----3--|
G--0-----0--|
D--0-----2--|
A--2-----3--|
E--3--------|
"You stared blindly..."

The rest of the song consists of just those two chords. The strumming pattern is fairly 
easy to hear in the actual song, and not hard to pick up.  Enjoy guys
Tap to rate this tab
# A B C D E F G H I J K L M N O P Q R S T U V W X Y Z