Guitaretab - guitar tabs
Song name
# A B C D E F G H I J K L M N O P Q R S T U V W X Y Z

Backseat Goodbye - Work Of Art tab

This is one of my tabs so forgive me if i messed up some where. And im only 13 so im 
working on this


"Work Of Art"

Capo on 6th Fret

Intro
e----------------------------|
B----------------------------|
G-------------0------------0-|
D--2-2--0h2p0---4-4--0h4p0---|
A--3-3----------5-5----------|
E----------------------------|
[ Tab from: http://www.guitaretab.com/b/backseat-goodbye/92316.html ]
e-----------------------------|
B-----------------------------|
G-------------0---------------|
D---------------------------0-|
A--2-2--0h2p0----2-2--0h2p0---|
E--3-3-----------3-3----------|

e-----------------------------0-|
B-----------------------------0-|
G-------------0------------0--0-|
D--2-2--0h2p0---4-4--0h4p0----0-|
A--3-3----------5-5-----------2-|
E-----------------------------3-|


Verses
e------------------------------|
B--1--3----------------1p0-----|
G--0--0--0---0-------------0---|
D--2--4--0---0------0----------|
A--3--5--2---2--0h2------------|
E--------3---3-----------------|
Related for Work Of Art tab
Advertisement will be closed in 10 seconds