Song name
# A B C D E F G H I J K L M N O P Q R S T U V W X Y Z

Backseat Goodbye - Encore Encore tab

Capo on 1st Fret

Intro/Verses
e--0-1---------|
B--1-1-1-0-----|
G--2-2-0-0-----|
D--2-3-2-0-----|
A--0---3-2-----|
E--------3-----|

Chorus
e--------------1---1-----------------------|
B----1----1----1---1----1----1-----1-----1-|
G----2----2----2---2----0----0-----0-----0-|
D----2----2--3---3------2----2-------------|
A--0----0-------------3----3-----2----2----|
E------------------------------------------|
Tap to rate this tab
 
# A B C D E F G H I J K L M N O P Q R S T U V W X Y Z