Song name
# A B C D E F G H I J K L M N O P Q R S T U V W X Y Z

Backseat Goodbye - Sidewalk Sing Along tab

Song Title: Sidewalk Sing Along
Artist: Backseat Goodbye

Intro/Verse
e---------------|
B---------------|
G--5--------7---|
D--5--5--7--7---|
A--3--5--7--5---|
E-----3--5------|

PreChorus/Chorus
e--------1--3---|
B--1-----1--3---|
G--0--0--2--4---|
D--2--0--3--5---|
A--3--2--3--5---|
E-----3--1--3---|
Tap to rate this tab
 
# A B C D E F G H I J K L M N O P Q R S T U V W X Y Z