Guitaretab - guitar tabs
Song name
# A B C D E F G H I J K L M N O P Q R S T U V W X Y Z

Backseat Goodbye - Tuesday tab

Capo on 2nd Fret

Into/Verses
e--3--3------|
B--3--3------|
G--0--0------|
D--0--2------|
A--2--3------|
E--3---------|
[ Tab from: http://www.guitaretab.com/b/backseat-goodbye/95309.html ]
PreChorus
e--3--3------|
B--3--3------|
G--0--0------|
D--0--2------|
A--2--3------|
E--3---------|
"Well we could talk and touch..."

Chorus
e--------1--------0--1--|
B--1-----1--1-----1--1--|
G--0--0--2--0--0--0--2--|
D--2--0--3--2--0--2--3--|
A--3--2-----3--2--3-----|
E-----3--------3--------|
"We shake our hips and bit our lips..."
Related for Tuesday tab