Song name
# A B C D E F G H I J K L M N O P Q R S T U V W X Y Z

Backstreet Boys - No One Else Comes Close tab

  No one else comes close.
                                        Backstreet Boys
                                        Album: Millennium
                                        Tabs by: Pham Hong Y (from Vietnam)
                                        hongy_bsb@yahoo.com.vn

 This is a quite emotional song by one of the most famous band in the world.
I think with my tab, you can play this song with just one guitar.

Intro:

E|-------0-------------0-------|----------------------------|
B|-----1------1------1------1--|-----1------1--3---1-0------|
G|---0------0------0------0----|----------2-------------0---|
D|-----------------------------|---3---3---------0----------|
A|-3-------------0-------------|---3------------------------|
E|-----------------------------|-1-------------3------------|


E|-------0-------------0-------|--------------------------|
B|-----1------1------1------1--|------1------1---0--------|
G|---0------0------0------0----|----2------2-----0--------|
D|-----------------------------|--------3------0----------|
A|-3-------------0-------------|--3-----------------------|
E|-----------------------------|--1-----------------------|

     Verse 1:

 E|-----------3------------3----|--------0-----------------------|
 B|------1-3----------1-3-------|------1----1----0-----1---3-----|
 G|----0------------0-----------|----0--------0--0-----2---4-----|
 D|-----------------------------|--------------------0---0---0---|
 A|--3------------0-------------|--------------------------------|
 E|-----------------------------|--1-------------3---------------|
 When we turn  down the lights, the two of us alone together


E|--0--------3------------3----|--------0----------------------|
B|--1---1-3----------1-3-------|------1----1------------0------|
G|----0------------0-----------|----0--------0--1-----1--------|
D|-----------------------------|----------------2--2-----------|
A|--3------------0-------------|----------------2--------------|
E|-----------------------------|--1-------------0--------------|
Something's just not right,  but girl you know that I would never

Bridge:
E|--------------------------------|-------------------------------|
B|----------1--------------0------|--------1---------------3------|
G|------2-----2--------1-----1----|------0----0--------2-----2----|
D|----2---2-----2----2---2-----2--|----2-------------0---0-----0--|
A|--0-----------------------------|-------------------------------|
E|-----------------4--------------|--3-------------2--------------|

    Ever let,  another's touch      Come between the two of us

E|------------------------------|--------------------------|
B|--------1--------------1------|--0-----0----0-1-0--------|
G|------2----2-------2-----2----|--0---0------0-2-0--------|
D|----3--------3---0---0-----0--|----0------0-----0--------|
A|------------------------------|--------------------------|
E|--1---------------------------|--------------------------|
Cause no one else will ever take your place

cHORUS:
    No one else comes ...

E||---------0-------------3-----|------0-----------------------------|
B||-------1-----------0-3-------|------1--------3-------1--------0---|
G||-----2-----------0-----------|----0--------0-----------2--------0-|
D||---3-------------------------|---------------------2--------0-----|
A||-----------------------------|--3--------2-------0----------------|
E||---------------3-------------|----------------------------3-------|

     close  to  you , no one makes me feel the way you do. You're so special
E||---------0-------------3-----|------0-----------------------------|
B||-------1-----------0-3-------|------1--------3-------1--------0---|
G||-----2-----------0-----------|----0--------0-----------2--------0-|
D||---3-------------------------|---------------------2--------0-----|
A||-----------------------------|--3--------2-------0----------------|
E||---------------3-------------|----------------------------3-------|

      girl   to   me , and you'll always be  eternally . Everytime I


E||---------0-------------3-----|------0-----------------------------|
B||-------1-----------0-3-------|------1--------3-------1--------0---|
G||-----2-----------0-----------|----0--------0-----------2--------0-|
D||---3-------------------------|---------------------2--------0-----|
A||-----------------------------|--3--------2-------0----------------|
E||---------------3-------------|----------------------------3-------|

      hold  you  near, you always say the words I love to hear


E||--------0-----------3-----|
B||------1---------0-3-------|
G||----2---------0-----------|
D||--3-----------------------|
A||--------------------------|
E||--------------------------|
    girl with just a touch you can do so much.

    No one else comes close

   (The next parts play the same as above from the intro)

   And when I wake up to
   The touch of your head on my shoulder
   You're my dream come true, oh yeah
   Girl you know I'll always treasure
   Every kiss and everyday I'll love you girl in
   Every way

   And I always will, cause in my eyes
Tap to rate this tab
# A B C D E F G H I J K L M N O P Q R S T U V W X Y Z