Song name
# A B C D E F G H I J K L M N O P Q R S T U V W X Y Z

Backstreet Boys - Lost Without You tab

"Lost Without you"....im bored so im publishing this for some odd reason...thank 
really does exist!If your going to play this song, then idk how you would no the rythem it is 
bc u havent heard it before.so yea have fun!if u have any questions email me:applejuice@netscape.net

   ----0----0---0-------0-0----0--0--0----0---0-|
   --11---11--11------7--7----9--9--9----5---5--|
   -9----------------5--5----7----------3---3---|
   ---------------------------------------------|
   ---------------------------------------------|
   ---------------------------------------------|

   ----0----0---0-------0-0----0--0--0----0---0------------0-|
   --11---11--11------7--7----9--9--9----5---5--------5------|
   -9----------------5--5----7----------3---3----3-----------|
   ----------------------------------------------------------|
   ----------------------------------------------------------|
   ----------------------------------------------------------|

   -0---0---0---0--0--0--0--0--0--0--0--0--|
   -11--11--11--11-11-11-11-11-11-11-11-11-|
   -9---9---9---9--9--9--9--9--9--9--9--9--|
   ----------------------------------------|
   ----------------------------------------|
   ----------------------------------------|

to be continuted.....not done yet as in ;)
Tap to rate this tab
# A B C D E F G H I J K L M N O P Q R S T U V W X Y Z