Guitaretab - guitar tabs
Song name
# A B C D E F G H I J K L M N O P Q R S T U V W X Y Z

Backstreet Boys - I Want It That Way tab

http://www.youtube.com/watch?v=XeGIqrXwsxY&feature=response_watch
Well, that's the tab from this video, I wanted to put it here because I didn't seem any 
tab for this music... enjoy!

e|------------------------|--------------------------|
B|--------0-------1h0-----|--------0-----------3-----|
G|-----------0---------0--|-----------2-----0-----0--|
D|-----2--------2---------|-----2--------0-----------|
A|------------------------|--3-----------------------|
E|--0---------------------|-----------3--------2-----|

e|------------------------|--------------------------|
B|--------0-------1h0-----|--------0-----------3-----|
G|-----------0---------0--|-----------------0-----0--|
D|-----2--------2---------|-----2--------0-----------|
A|------------------------|--3-----------------------|
E|--0---------------------|-----------3--------2-----| (x3)

e|------------------------|--------------------------|
B|--------0-------1h0-----|--------3-----------0--3--|
G|-----------0---------0--|-----2-----------0--------|
D|-----2--------2---------|--0-----------0-----------|
A|------------------------|--------------------------|
E|--0---------------------|-----------3--------------| ^transition to chorus

chorus:
[ Tab from: http://www.guitaretab.com/b/backstreet-boys/186575.html ]
e|-----0--------------------|--------------------------|
B|--3-----3-----1--0--------|-----3--------------0--3--|
G|--------------------2--0--|--------0--0--------------|
D|--------------------------|--4-----------0-----------|
A|--3--------3--------3-----|--5-----------------------|
E|--------------------------|-----------3-----3--------|

e|-----0----------------------|--------------------------|
B|--3-----3-----1-0h1p0-------|-----3--------------------|
G|----------------------2--0--|--------0--0--------0-----|
D|----------------------------|--4-----------0--------4--|
A|--3--------3----------3-----|--5-----------------------|
E|----------------------------|-----------3-----3--------|

e|-------------------------|-------------------------|
B|-------3-----1--0--------|-----3-----0-------------|
G|-------------------2--0--|--2-----0-----2p0--------|
D|--2p0--------------------|--0----------------0-----|
A|--3-------3--------3-----|----------------------2--|
E|-------------------------|-----------3-------------|

e|----------------------------------|
B|-------------------0-----3--------|
G|-----------0----------2-----0--0--|
D|--2-----------2-------0-----------|
A|-----2-----------2----------------|
E|--0-----0----------------------3--|


outro:

e|---------------------------------------|
B|------------------------0-----3--------|
G|---------------0-----------2-----0--0--|
D|--5-4-2-----------2--------0-----------|
A|---------2-----------2-----------------|
E|------0-----0-----------------------3--|
Related for I Want It That Way tab
Advertisement will be closed in 10 seconds