Song name
# A B C D E F G H I J K L M N O P Q R S T U V W X Y Z

Backstreet Boys - More Than That tab

Very cool song to play... This intro is something that I haven't found
anywhere on the net so I tabbed it... :-) Hope You'll Like It... Thnx
Mail me at: vaci87@Yahoo.com

  Am                      G              D
E----------0-----------------------------2----3----2-------------------------|
B--1----1-----1------1----0---------0----3--------------3--------------------|
G----------------2---------------0-------2-------------------2---------------|
D--2--2--------------2----0---0----------0-----------------------------------|
A----------------------------------------------------------------------------|
E----------------------------------------------------------------------------|


  Am                      Dsus4      D
E----------0--------------3----3-----2----3-----2----------------------------|
B--1----1-----1------1----3----3-----3--------------3------------------------|
G----------------2--------2----2-----2------------------2--------------------|
D--2--2--------------2-------------------------------------------------------|
A----------------------------------------------------------------------------|
E----------------------------------------------------------------------------|


repeat this 2 times so if you liked it I'll post the way to play the chors
...
B-RokSter
Tap to rate this tab
# A B C D E F G H I J K L M N O P Q R S T U V W X Y Z