Song name
# A B C D E F G H I J K L M N O P Q R S T U V W X Y Z

Backstreet Boys - Show Me The Meaning Of Being Lonely tab

show me the meaning - backstreet boys
-------------------------------------------------------------------------------
Tabbed by:tariq
Email:tariq.rox@gmail.com

Tuning:standard


watch out for spaces....it matters!!!


first solo
============
e------------------------------------------------------------------------------------|
b----7-9-10~---7--9--10--12\14/12--10-9h10p9-7---------------------------------------|
g------------------------------------------------------------------------------------|
d------------------------------------------------------------------------------------|
a------------------------------------------------------------------------------------|
e------------------------------------------------------------------------------------|
pick 12 after sliding up from 14.........be soft during hammer-on & pull-off..but be fast


Ending solo part1
==================

e------------------------------------------------------------------------------------|
b----9-11-12~---9--11--12--14\16/14--12-11h12p11-9-----------------------------------|
g------------------------------------------------------------------------------------|
d------------------------------------------------------------------------------------|
a------------------------------------------------------------------------------------|
e------------------------------------------------------------------------------------|
pick 12 after sliding down from 16.........be soft during hammer-on & pull off..but be fast


part2
=====
e------------------------------------------------------------------------------------|
b-----9-11-12--12\14/12--12-14\16-16------14-12-11---(9)--11-9-----------------------|
g--11----------------------------------------------------------11-9-8----------------|
d---------------------------------------------------------------------11-9-----------|
a------------------------------------------------------------------------------------|
e------------------------------------------------------------------------------------|
                                                       scale--->play it fast


************************************

| /   slide up
| \   slide down
| h   hammer-on
| p   pull-off
| ~   vibrato
| +   harmonic
| x   Mute note
| b   Bend
| pb  Pre-bend
| br  Bend release
| pbr Pre-bend release
| brb Bend release bend
| ( ) Ghost note

************************************
Tap to rate this tab
 
# A B C D E F G H I J K L M N O P Q R S T U V W X Y Z