Song name
# A B C D E F G H I J K L M N O P Q R S T U V W X Y Z

Backstreet Boys - As Long As You Love Me tab

AS LONG AS YOU LOVE ME - BACKSTREET BOYS

I saw da other tabs 4 dis song "(ver 1)" is 4 intermediate playas I thought
y nt post 1 4 rookies who jus wanna learn sumthin & "(ver 2)" has less
material. Dis is jus da intro bt ACCURATE!!!


Tabbed by:Karan Sanas


Tuning:Standard

e|--1---------|--0---------|--0---------|------------|
B|--------1---|--------1---|--------1---|------1-0---|
G|------0-----|------0-----|------0-----|----0-----0-|
D|--3---------|------------|------------|------------|
A|------------|--3---------|--0---------|------------|
E|------------|------------|------------|--3---------|


e|--1---------1---0---0-|--0--------0---1---3---|--0-------------------0------|
B|--------1---------3---|--------1------------1-|--------1------1---3---3---1-|
G|------0---------------|------0----------------|------0------2---------------|
D|--3-------------------|-----------------------|-----------------------------|
A|----------------------|--3--------------------|--0--------------------------|
E|----------------------|-----------------------|-----------------------------|

You can get the chords from other tabbers.

Please Rate :)
Tap to rate this tab
 
# A B C D E F G H I J K L M N O P Q R S T U V W X Y Z