Song name
# A B C D E F G H I J K L M N O P Q R S T U V W X Y Z

Backstreet Boys - Larger Than Life tab

-------------------------------------------------------------------------------
			     LARGER THAN LIFE - Backstreet Boys
-------------------------------------------------------------------------------
Tabbed by: metallhead
Email: homesticky@gmail.com

Tuning: E A D G B E


Gtr I (E A D G B E) - 'Voice'
Gtr II (E A D G B E) - 'Guitar'
Gtr III (E A D G B E) - 'Keyboard'

  Q=116
 4/4
  Gtr I
  W          W          W          W
|----------|----------|----------|------|
|----------|----------|----------|------|
|----------|----------|----------|------|
|----------|----------|----------|------|
|----------|----------|----------|------|
|----------|----------|----------|------|


  Gtr II
  W          Q  Q  S S E +S  S E   S S S S  S  S E +Q   Q
|----------|---------------------|---------------------------|
|----------|---------------------|---------------------------|
|----------|---------------------|---------------------------|
|----------|-------1-------------|----------1----------------|
|----------|-3--3------3-(3)-----|-1---3---------3-(3)-------|
|----------|---------------------|---------------------------|
|
| Gtr III
| W          W                     Q       +S  S E +Q.    E
|----------|-8-------------------|-6-------(6)---5-(5)-------|
|----------|-8-------------------|-6-------(6)---6-(6)-------|
|----------|-8-------------------|-7-------(7)---5-(5)-------|
|----------|---------------------|---------------------------|
|----------|---------------------|---------------------------|
|----------|---------------------|---------------------------|


                                                   Gtr I
   Q   +S  S  E  +Q    Q     Q   +S  S E +Q   Q    S S S S S S S S Q  S S S S
|-------------------------|----------------------|-----------------------------|
|--3---(3)----1--(1)---4--|--3---(3)---1-(1)-----|-1---1-1-1---1---1--1---1----|
|-------------------------|-------------------3--|-----------------------------|
|-------------------------|----------------------|-----------------------------|
|-------------------------|----------------------|-----------------------------|
|-------------------------|----------------------|-----------------------------|
|
|  Q   +S  S  E  +Q    Q     Q   +S  S E +Q   Q    W
|---------------------11--|-10--(10)---8-(8)--6--|-----------------------------|
|-15--(15)---13-(13)--11--|-11--(11)---8-(8)--6--|-----------------------------|
|-15--(15)---13-(13)--12--|-10--(10)---8-(8)--7--|-----------------------------|
|-15--(15)---13-(13)------|----------------------|-----------------------------|
|-------------------------|----------------------|-----------------------------|
|-------------------------|----------------------|-----------------------------|


  S S S S S S E +S  S E S S E   +S  S S S Q  H      H    Q  E S S
|-----------------------------|-------------------|----------------|
|-----------------------1---1-|-(1)---------------|----------------|
|-3---3---3---2-(2)-----------|-----3-------------|----------------|
|-----------------------------|-------5-----------|-----------5----|
|-----------------------------|-------------------|----------------|
|-----------------------------|-------------------|----------------|


  S S S S S S S S Q  S S S S   S S S S S S E +Q   S S S S   S S E Q  H
|----------------------------|----------------------------|---------------|
|----------------------------|--------------------1---1---|-4-------------|
|-5---5---5---5---5--5---5---|-3---3---3---2-(2)----------|---------------|
|----------------------------|----------------------------|---------------|
|----------------------------|----------------------------|---------------|
|----------------------------|----------------------------|---------------|


  Gtrs I, II
  W           Q   +S  S E +Q    Q
|----------|-----------------------|
|----------|--3---(3)---1-(1)---4--|
|----------|-----------------------|
|----------|-----------------------|
|----------|-----------------------|
|----------|-----------------------|
|
| Gtr III
| W           Q   +S  S E +Q    Q
|----------|-10--(10)---8-(8)--11--|
|----------|-11--(11)---9-(9)--11--|
|----------|-10--(10)---8-(8)--12--|
|----------|-----------------------|
|----------|-----------------------|
|----------|-----------------------|


   Q   +S  S E +Q   Q     Q   +S  S E +Q    Q
|----------------------|------------------------|
|--3---(3)---1-(1)-----|--3---(3)---1-(1)---4---|
|-------------------3--|------------------------|
|----------------------|------------------------|
|----------------------|------------------------|
|----------------------|------------------------|
|
|  Q   +S  S E +Q   Q     Q   +S  S E +Q    Q
|-10--(10)---8-(8)--6--|-10--(10)---8-(8)--11---|
|-11--(11)---8-(8)--6--|-11--(11)---9-(9)--11---|
|-10--(10)---8-(8)--7--|-10--(10)---8-(8)--12---|
|----------------------|------------------------|
|----------------------|------------------------|
|----------------------|------------------------|


  Gtr I
  S S S S S S S S S S S S Q     Q  Q  S S S S  S  S S S
|----------------------------|--------------------------|
|-3---4---3---4---3---4------|--4--4--4---4----4--------|
|-------------------------5--|----------------------5---|
|----------------------------|--------------------------|
|----------------------------|--------------------------|
|----------------------------|--------------------------|
|
| Gtr II
| W                             Q  Q  S S E   +S  S E
|----------------------------|--------------------------|
|----------------------------|--------------------------|
|----------------------------|--------------------------|
|----------------------------|--------1-----------------|
|----------------------------|--3--3------3---(3)-------|
|----------------------------|--------------------------|
|
| Gtr III
| W                             W
|----------------------------|--------------------------|
|----------------------------|-13-----------------------|
|----------------------------|-12-----------------------|
|----------------------------|-13-----------------------|
|----------------------------|--------------------------|
|----------------------------|--------------------------|


   Q         S  S  S S   Q   +S  S E
|------------------------------------|
|--3---------3-----1-----1---(1)-----|
|------------------------------------|
|------------------------------------|
|------------------------------------|
|------------------------------------|
|
|  S S S S   S  S  E    +Q    Q
|------------------------------------|
|------------------------------------|
|------------------------------------|
|------------1-----------------------|
|--1---3-----------3----(3)----------|
|------------------------------------|
|
|  Q        +S  S  E    +Q.        E
|------------------------------------|
|-11-------(11)---10---(10)----------|
|-10-------(10)---10---(10)----------|
|-12-------(12)---10---(10)----------|
|------------------------------------|
|------------------------------------|


  S S S S S S S S S S S S  S  S S S
|-----------------------------------|
|-4---4---4---4---4-----------------|
|---------------------5----5----5---|
|-----------------------------------|
|-----------------------------------|
|-----------------------------------|
|
| Q       Q       S S E   +S  S E
|-----------------------------------|
|-----------------------------------|
|-----------------------------------|
|-----------------1-----------------|
|-3-------3-----------3---(3)-------|
|-----------------------------------|
|
| W
|-8---------------------------------|
|-8---------------------------------|
|-8---------------------------------|
|-----------------------------------|
|-----------------------------------|
|-----------------------------------|


  Q        S  S E +Q   Q     S S S S S S S S Q      Q
|--------------------------|--------------------------------|
|-3--------3----1-(1)------|-4---4---4-------4--------------|
|--------------------------|-------------5------------------|
|--------------------------|--------------------------------|
|--------------------------|--------------------------------|
|--------------------------|--------------------------------|
|
| S S S S  S  S E +Q   Q     Q       Q       S S E +S  S E
|--------------------------|--------------------------------|
|--------------------------|--------------------------------|
|--------------------------|--------------------------------|
|----------1---------------|-----------------1--------------|
|-1---3---------3-(3)------|-3-------3-----------3-(3)------|
|--------------------------|--------------------------------|
|
| Q       +S  S E +Q.    E   W
|-6-------(6)---5-(5)------|-8------------------------------|
|-6-------(6)---6-(6)------|-8------------------------------|
|-7-------(7)---5-(5)------|-8------------------------------|
|--------------------------|--------------------------------|
|--------------------------|--------------------------------|
|--------------------------|--------------------------------|


  S S S S  S  S S S  Q   Q      Q   +S  S  E  +Q    Q     Q   +S  S E +Q   Q
|----------------------------|-------------------------|----------------------|
|-3---3----3----1----1-------|--3---(3)----1--(1)---4--|--3---(3)---1-(1)-----|
|------------------------0---|-------------------------|-------------------3--|
|----------------------------|-------------------------|----------------------|
|----------------------------|-------------------------|----------------------|
|----------------------------|-------------------------|----------------------|
|
| S S S S  S  S E   +Q   Q      Q   +S  S  E  +Q    Q     Q   +S  S E +Q   Q
|----------------------------|-------------------------|----------------------|
|----------------------------|--3---(3)----1--(1)---4--|--3---(3)---1-(1)-----|
|----------------------------|-------------------------|-------------------3--|
|----------1-----------------|-------------------------|----------------------|
|-1---3---------3---(3)------|-------------------------|----------------------|
|----------------------------|-------------------------|----------------------|
|
| Q       +S  S E   +Q.    E    Q   +S  S  E  +Q    Q     Q   +S  S E +Q   Q
|-6-------(6)---5---(5)------|---------------------11--|-10--(10)---8-(8)--6--|
|-6-------(6)---6---(6)------|-15--(15)---13-(13)--11--|-11--(11)---8-(8)--6--|
|-7-------(7)---5---(5)------|-15--(15)---13-(13)--12--|-10--(10)---8-(8)--7--|
|----------------------------|-15--(15)---13-(13)------|----------------------|
|----------------------------|-------------------------|----------------------|
|----------------------------|-------------------------|----------------------|


  Q  Q  H               W                       S S S S S S S S Q  S S S S
|---------------------|-----------------------|-3--------------------------|
|-1-------------------|-----------------------|-----1---1---1---1--1---1---|
|---------------------|-----------------------|----------------------------|
|---------------------|-----------------------|----------------------------|
|---------------------|-----------------------|----------------------------|
|---------------------|-----------------------|----------------------------|
|
| Q  Q  S S E +S  S E   S S S S S S E +Q   Q    W
|---------------------|-----------------------|----------------------------|
|---------------------|-----------------------|----------------------------|
|---------------------|-----------------------|----------------------------|
|-------1-------------|---------1-------------|----------------------------|
|-3--3------3-(3)-----|-1---3-------3-(3)-----|----------------------------|
|---------------------|-----------------------|----------------------------|


  S S S S S S S S Q  S S E   +S  S S S Q  H      W
|--------------------------|-------------------|------|
|--------------------1---1-|-(1)---------------|------|
|-3---3---3---2---2--------|-----3-------------|------|
|--------------------------|-------5-----------|------|
|--------------------------|-------------------|------|
|--------------------------|-------------------|------|


  S S S S S S S S S S S S S S S S   S S S S S S E +Q   S S S S   Q  Q  H
|---------------------------------|----------------------------|------------|
|---------------------------------|--------------------1---1---|-4----------|
|-5---5---5---5---5---5---5---5---|-3---3---3---2-(2)----------|------------|
|---------------------------------|----------------------------|------------|
|---------------------------------|----------------------------|------------|
|---------------------------------|----------------------------|------------|


  Gtrs I, II
  W           Q   +S  S E +Q    Q
|----------|-----------------------|
|----------|--3---(3)---1-(1)---4--|
|----------|-----------------------|
|----------|-----------------------|
|----------|-----------------------|
|----------|-----------------------|
|
| Gtr III
| W           Q   +S  S E +Q    Q
|----------|-10--(10)---8-(8)--11--|
|----------|-11--(11)---9-(9)--11--|
|----------|-10--(10)---8-(8)--12--|
|----------|-----------------------|
|----------|-----------------------|
|----------|-----------------------|


   Q   +S  S E +Q   Q     Q   +S  S E +Q    Q
|----------------------|------------------------|
|--3---(3)---1-(1)-----|--3---(3)---1-(1)---4---|
|-------------------3--|------------------------|
|----------------------|------------------------|
|----------------------|------------------------|
|----------------------|------------------------|
|
|  Q   +S  S E +Q   Q     Q   +S  S E +Q    Q
|-10--(10)---8-(8)--6--|-10--(10)---8-(8)--11---|
|-11--(11)---8-(8)--6--|-11--(11)---9-(9)--11---|
|-10--(10)---8-(8)--7--|-10--(10)---8-(8)--12---|
|----------------------|------------------------|
|----------------------|------------------------|
|----------------------|------------------------|


  Gtr I
  S S S S S S S S S S S S Q     Q  Q  S S S S  S  S S S
|-------------------------3--|--------------------------|
|-3---4---3---4---3---4------|--4--4--4---4----4--------|
|----------------------------|----------------------5---|
|----------------------------|--------------------------|
|----------------------------|--------------------------|
|----------------------------|--------------------------|
|
| Gtr II
| W                             Q  Q  S S E   +S  S E
|----------------------------|--------------------------|
|----------------------------|--------------------------|
|----------------------------|--------------------------|
|----------------------------|--------1-----------------|
|----------------------------|--3--3------3---(3)-------|
|----------------------------|--------------------------|
|
| Gtr III
| W                             W
|----------------------------|--------------------------|
|----------------------------|-13-----------------------|
|----------------------------|-12-----------------------|
|----------------------------|-13-----------------------|
|----------------------------|--------------------------|
|----------------------------|--------------------------|


   Q         S  S  S S   Q   +S  S E
|------------------------------------|
|--3---------3-----1-----1---(1)-----|
|------------------------------------|
|------------------------------------|
|------------------------------------|
|------------------------------------|
|
|  S S S S   S  S  E    +Q    Q
|------------------------------------|
|------------------------------------|
|------------------------------------|
|------------1-----------------------|
|--1---3-----------3----(3)----------|
|------------------------------------|
|
|  Q        +S  S  E    +Q.        E
|------------------------------------|
|-11-------(11)---10---(10)----------|
|-10-------(10)---10---(10)----------|
|-12-------(12)---10---(10)----------|
|------------------------------------|
|------------------------------------|


  S S S S S S S S S S S S  S  S S S
|-----------------------------------|
|-4---4---4---4---4-----------------|
|---------------------5----5----5---|
|-----------------------------------|
|-----------------------------------|
|-----------------------------------|
|
| Q       Q       S S E   +S  S E
|-----------------------------------|
|-----------------------------------|
|-----------------------------------|
|-----------------1-----------------|
|-3-------3-----------3---(3)-------|
|-----------------------------------|
|
| W
|-8---------------------------------|
|-8---------------------------------|
|-8---------------------------------|
|-----------------------------------|
|-----------------------------------|
|-----------------------------------|


  Q        S  S E +Q   Q     S S S S S S S S Q      Q
|--------------------------|--------------------------------|
|-3--------3----1-(1)------|-4---4---4-------4--------------|
|--------------------------|-------------5------------------|
|--------------------------|--------------------------------|
|--------------------------|--------------------------------|
|--------------------------|--------------------------------|
|
| S S S S  S  S E +Q   Q     Q       Q       S S E +S  S E
|--------------------------|--------------------------------|
|--------------------------|--------------------------------|
|--------------------------|--------------------------------|
|----------1---------------|-----------------1--------------|
|-1---3---------3-(3)------|-3-------3-----------3-(3)------|
|--------------------------|--------------------------------|
|
| Q       +S  S E +Q.    E   W
|-6-------(6)---5-(5)------|-8------------------------------|
|-6-------(6)---6-(6)------|-8------------------------------|
|-7-------(7)---5-(5)------|-8------------------------------|
|--------------------------|--------------------------------|
|--------------------------|--------------------------------|
|--------------------------|--------------------------------|


  S S S S  S  S S S  Q   Q      Q   +S  S  E  +Q    Q     Q   +S  S E +Q   Q
|----------------------------|-------------------------|----------------------|
|-3---3----3----1----1-------|--3---(3)----1--(1)---4--|--3---(3)---1-(1)-----|
|------------------------0---|-------------------------|-------------------3--|
|----------------------------|-------------------------|----------------------|
|----------------------------|-------------------------|----------------------|
|----------------------------|-------------------------|----------------------|
|
| S S S S  S  S E   +Q   Q      Q   +S  S  E  +Q    Q     Q   +S  S E +Q   Q
|----------------------------|-------------------------|----------------------|
|----------------------------|--3---(3)----1--(1)---4--|--3---(3)---1-(1)-----|
|----------------------------|-------------------------|-------------------3--|
|----------1-----------------|-------------------------|----------------------|
|-1---3---------3---(3)------|-------------------------|----------------------|
|----------------------------|-------------------------|----------------------|
|
| Q       +S  S E   +Q.    E    Q   +S  S  E  +Q    Q     Q   +S  S E +Q   Q
|-6-------(6)---5---(5)------|---------------------11--|-10--(10)---8-(8)--6--|
|-6-------(6)---6---(6)------|-15--(15)---13-(13)--11--|-11--(11)---8-(8)--6--|
|-7-------(7)---5---(5)------|-15--(15)---13-(13)--12--|-10--(10)---8-(8)--7--|
|----------------------------|-15--(15)---13-(13)------|----------------------|
|----------------------------|-------------------------|----------------------|
|----------------------------|-------------------------|----------------------|


  Q  Q  H               W                           W
|---------------------|--------------------------|-------------------------|
|-1-------------------|--------------------------|-------------------------|
|---------------------|--------------------------|-------------------------|
|---------------------|--------------------------|-------------------------|
|---------------------|--------------------------|-------------------------|
|---------------------|--------------------------|-------------------------|
|
| Q  Q  S S E +S  S E   S S S S  S  S E +Q   Q      Q   +S  S  E  +Q    Q
|---------------------|--------------------------|-------------------------|
|---------------------|--------------------------|--3---(3)----1--(1)---4--|
|---------------------|--------------------------|-------------------------|
|-------1-------------|----------1---------------|-------------------------|
|-3--3------3-(3)-----|-1---3---------3-(3)------|-------------------------|
|---------------------|--------------------------|-------------------------|
|
| W                     Q       +S  S E +Q.    E    Q   +S  S  E  +Q    Q
|-8-------------------|-6-------(6)---5-(5)------|---------------------11--|
|-8-------------------|-6-------(6)---6-(6)------|-15--(15)---13-(13)--11--|
|-8-------------------|-7-------(7)---5-(5)------|-15--(15)---13-(13)--12--|
|---------------------|--------------------------|-15--(15)---13-(13)------|
|---------------------|--------------------------|-------------------------|
|---------------------|--------------------------|-------------------------|


  Gtr II
   Q   +S  S E +Q   Q    W                   W          W
|----------------------|-------------------|----------|--------------|
|--3---(3)---1-(1)-----|-------------------|----------|--------------|
|-------------------3--|-------------------|----------|--------------|
|----------------------|-------------------|----------|--------------|
|----------------------|-------------------|----------|--------------|
|----------------------|-------------------|----------|--------------|
|
| Gtr III
|  Q   +S  S E +Q   Q    H    +Q   +S  S E   W          H    +Q   Q
|-10--(10)---8-(8)--6--|-8----(8)--(8)-----|-7--------|-8----(8)-----|
|-11--(11)---8-(8)--6--|-8----(8)--(8)-----|-8--------|-9----(9)-----|
|-10--(10)---8-(8)--7--|-8----(8)--(8)-----|-7--------|-8----(8)-----|
|----------------------|-------------------|----------|--------------|
|----------------------|-------------------|----------|--------------|
|----------------------|-------------------|----------|--------------|


  Gtr I
  W            Q   +S  S E +Q    Q
|-----------|-----------------------|
|-----------|--3---(3)---1-(1)---4--|
|-----------|-----------------------|
|-----------|-----------------------|
|-----------|-----------------------|
|-----------|-----------------------|
|
| H    H       Q   +S  S E +Q    Q
|-8----7----|-10--(10)---8-(8)--11--|
|-8----8----|-11--(11)---9-(9)--11--|
|-8----7----|-10--(10)---8-(8)--12--|
|-----------|-----------------------|
|-----------|-----------------------|
|-----------|-----------------------|


   Q   +S  S E +Q   Q     Q   +S  S E +Q    Q
|----------------------|------------------------|
|--3---(3)---1-(1)-----|--3---(3)---1-(1)---4---|
|-------------------3--|------------------------|
|----------------------|------------------------|
|----------------------|------------------------|
|----------------------|------------------------|
|
|  Q   +S  S E +Q   Q     Q   +S  S E +Q    Q
|-10--(10)---8-(8)--6--|-10--(10)---8-(8)--11---|
|-11--(11)---8-(8)--6--|-11--(11)---9-(9)--11---|
|-10--(10)---8-(8)--7--|-10--(10)---8-(8)--12---|
|----------------------|------------------------|
|----------------------|------------------------|
|----------------------|------------------------|


   S S S S S S S S S S S S S S S S     S  S S S S S S S S S S S Q
|----------------------------------|--------------------------------|
|--3---4---3---4---3---4---3---4---|---3----4---3---4---3---4-------|
|----------------------------------|--------------------------------|
|----------------------------------|--------------------------------|
|----------------------------------|--------------------------------|
|----------------------------------|--------------------------------|
|
|  W                                  +W
|-10-------------------------------|-(10)---------------------------|
|-11-------------------------------|-(11)---------------------------|
|-10-------------------------------|-(10)---------------------------|
|----------------------------------|--------------------------------|
|----------------------------------|--------------------------------|
|----------------------------------|--------------------------------|


  Gtr II
  Q  Q  S S E +S  S E   S S S S  S  S E +Q   Q     Q  Q  S S E +S  S E
|---------------------|--------------------------|---------------------|
|---------------------|--------------------------|---------------------|
|---------------------|--------------------------|---------------------|
|-------1-------------|----------1---------------|-------1-------------|
|-3--3------3-(3)-----|-1---3---------3-(3)------|-3--3------3-(3)-----|
|---------------------|--------------------------|---------------------|
|
| W                     Q       +S  S E +Q.    E   W
|-8-------------------|-6-------(6)---5-(5)------|-8-------------------|
|-8-------------------|-6-------(6)---6-(6)------|-8-------------------|
|-8-------------------|-7-------(7)---5-(5)------|-8-------------------|
|---------------------|--------------------------|---------------------|
|---------------------|--------------------------|---------------------|
|---------------------|--------------------------|---------------------|


  S S S S  S  S E +Q   Q     Q  Q  S S E +S  S E   S S S S  S  S E +Q   Q
|--------------------------|---------------------|---------------------------|
|--------------------------|---------------------|---------------------------|
|--------------------------|---------------------|---------------------------|
|----------1---------------|-------1-------------|----------1----------------|
|-1---3---------3-(3)------|-3--3------3-(3)-----|-1---3---------3-(3)-------|
|--------------------------|---------------------|---------------------------|
|
| Q       +S  S E +Q.    E   W                     Q       +S  S E +Q.    E
|-6-------(6)---5-(5)------|-8-------------------|-6-------(6)---5-(5)-------|
|-6-------(6)---6-(6)------|-8-------------------|-6-------(6)---6-(6)-------|
|-7-------(7)---5-(5)------|-8-------------------|-7-------(7)---5-(5)-------|
|--------------------------|---------------------|---------------------------|
|--------------------------|---------------------|---------------------------|
|--------------------------|---------------------|---------------------------|


  Gtr I
   W                         W                     Q  Q  S S S S S S S S
|-------------------------|----------------------|-----------------------|
|-------------------------|----------------------|-4--4--4---4---4-------|
|-------------------------|----------------------|-------------------5---|
|-------------------------|----------------------|-----------------------|
|-------------------------|----------------------|-----------------------|
|-------------------------|----------------------|-----------------------|
|
| Gtr II
|  Q   +S  S  E  +Q    Q     Q   +S  S E +Q   Q    Q  Q  H
|-------------------------|----------------------|-----------------------|
|--3---(3)----1--(1)---4--|--3---(3)---1-(1)-----|-1---------------------|
|-------------------------|-------------------3--|-----------------------|
|-------------------------|----------------------|-----------------------|
|-------------------------|----------------------|-----------------------|
|-------------------------|----------------------|-----------------------|
|
| Gtr III
|  Q   +S  S  E  +Q    Q     Q   +S  S E +Q   Q    Q  Q  H
|---------------------11--|-10--(10)---8-(8)--6--|-8---------------------|
|-15--(15)---13-(13)--11--|-11--(11)---8-(8)--6--|-8---------------------|
|-15--(15)---13-(13)--12--|-10--(10)---8-(8)--7--|-8---------------------|
|-15--(15)---13-(13)------|----------------------|-----------------------|
|-------------------------|----------------------|-----------------------|
|-------------------------|----------------------|-----------------------|


  Q  S S S S Q  +S  S E   S S S S S S S S S S S S S S S S   Q  S S E +Q   Q
|-----------------------|---------------------------------|-------------------|
|-3--3---1---1--(1)-----|-4---4---4---4---4---------------|-3--3---1-(1)------|
|-----------------------|---------------------5---5---5---|-------------------|
|-----------------------|---------------------------------|-------------------|
|-----------------------|---------------------------------|-------------------|
|-----------------------|---------------------------------|-------------------|


                                                  Gtrs I, II
  S S S S S S S S Q  Q    S S S S S S S S Q  Q     Q   +S  S E +Q    Q
|-----------------------|-----------------------|-----------------------|
|-4---4---4-------4-----|-3---3---3---1---1-----|--3---(3)---1-(1)---4--|
|-------------5---------|--------------------0--|-----------------------|
|-----------------------|-----------------------|-----------------------|
|-----------------------|-----------------------|-----------------------|
|-----------------------|-----------------------|-----------------------|
|
| Gtr III
| W                       W                        Q   +S  S E +Q    Q
|-----------------------|-----------------------|-10--(10)---8-(8)--11--|
|-----------------------|-----------------------|-11--(11)---9-(9)--11--|
|-----------------------|-----------------------|-10--(10)---8-(8)--12--|
|-----------------------|-----------------------|-----------------------|
|-----------------------|-----------------------|-----------------------|
|-----------------------|-----------------------|-----------------------|


  Gtr I
   Q   +S  S E +Q   Q    Q  E S S Q      Q
|----------------------|------------------------|
|--3---(3)---1-(1)-----|-1----4---3------1------|
|-------------------3--|------------------------|
|----------------------|------------------------|
|----------------------|------------------------|
|----------------------|------------------------|
|
| Gtr II
|  Q   +S  S E +Q   Q    Q  Q     S S E +S  S E
|----------------------|------------------------|
|--3---(3)---1-(1)-----|------------------------|
|-------------------3--|------------------------|
|----------------------|----------1-------------|
|----------------------|-3--3---------3-(3)-----|
|----------------------|------------------------|
|
| Gtr III
|  Q   +S  S E +Q   Q    W
|-10--(10)---8-(8)--6--|-8----------------------|
|-11--(11)---8-(8)--6--|-8----------------------|
|-10--(10)---8-(8)--7--|-8----------------------|
|----------------------|------------------------|
|----------------------|------------------------|
|----------------------|------------------------|


  S S S S  S  S S S  S  S S S Q
|-1---1----1----3----1----3--------|
|----------------------------------|
|----------------------------------|
|----------------------------------|
|----------------------------------|
|----------------------------------|
|
| S S S S  S  S E   +Q        Q
|----------------------------------|
|----------------------------------|
|----------------------------------|
|----------1-----------------------|
|-1---3---------3---(3)------------|
|----------------------------------|
|
| Q       +S  S E   +Q.         E
|-6-------(6)---5---(5)------------|
|-6-------(6)---6---(6)------------|
|-7-------(7)---5---(5)------------|
|----------------------------------|
|----------------------------------|
|----------------------------------|


  Q  E S S Q      Q        S S S S  S  S S S  S  S S S Q
|------------------------|-1---1----1----3----1----3-------|
|-1----4---3------1------|---------------------------------|
|------------------------|---------------------------------|
|------------------------|---------------------------------|
|------------------------|---------------------------------|
|------------------------|---------------------------------|
|
| Q  Q     S S E +S  S E   S S S S  S  S E   +Q        Q
|------------------------|---------------------------------|
|------------------------|---------------------------------|
|------------------------|---------------------------------|
|----------1-------------|----------1----------------------|
|-3--3---------3-(3)-----|-1---3---------3---(3)-----------|
|------------------------|---------------------------------|
|
| W                        Q       +S  S E   +Q.         E
|-8----------------------|-6-------(6)---5---(5)-----------|
|-8----------------------|-6-------(6)---6---(6)-----------|
|-8----------------------|-7-------(7)---5---(5)-----------|
|------------------------|---------------------------------|
|------------------------|---------------------------------|
|------------------------|---------------------------------|


  Q  E S S Q      Q
|-------------------------|
|-1----4---3------1-------|
|-------------------------|
|-------------------------|
|-------------------------|
|-------------------------|
|
| Q  Q     S S E +S  S E
|-------------------------|
|-------------------------|
|-------------------------|
|----------1--------------|
|-3--3---------3-(3)------|
|-------------------------|
|
| W
|-8-----------------------|
|-8-----------------------|
|-8-----------------------|
|-------------------------|
|-------------------------|
|-------------------------|


  S S S S  S  S S S  S  S S S Q
|-1---1----1----3----6--------6---|
|-------------------------8-------|
|---------------------------------|
|---------------------------------|
|---------------------------------|
|---------------------------------|
|
| S S S S  S  S E   +Q        Q
|---------------------------------|
|---------------------------------|
|---------------------------------|
|----------1----------------------|
|-1---3---------3---(3)-----------|
|---------------------------------|
|
| Q       +S  S E   +Q.         E
|-6-------(6)---5---(5)-----------|
|-6-------(6)---6---(6)-----------|
|-7-------(7)---5---(5)-----------|
|---------------------------------|
|---------------------------------|
|---------------------------------|


   W                        +W
|--8----------------------|-(8)--------------------|
|-------------------------|------------------------|
|-------------------------|------------------------|
|-------------------------|------------------------|
|-------------------------|------------------------|
|-------------------------|------------------------|
|
|  Q   +S  S  E  +Q    Q     Q    +S  S E +Q   Q
|-------------------------|------------------------|
|--3---(3)----1--(1)---4--|--3----(3)---1-(1)------|
|-------------------------|--------------------3---|
|-------------------------|------------------------|
|-------------------------|------------------------|
|-------------------------|------------------------|
|
|  Q   +S  S  E  +Q    Q     Q    +S  S E +Q   Q
|---------------------11--|-10---(10)---8-(8)--6---|
|-15--(15)---13-(13)--11--|-11---(11)---8-(8)--6---|
|-15--(15)---13-(13)--12--|-10---(10)---8-(8)--7---|
|-15--(15)---13-(13)------|------------------------|
|-------------------------|------------------------|
|-------------------------|------------------------|


  Q  Q  S S S S  S  S  S S    Q        S  S  S S  Q    +S  S E
|--------------------------|-----------------------------------|
|--------------------------|-----------------------------------|
|-8--8--8---8----8---------|-----------------------------------|
|---------------------10---|-12-------12----10---10---(10)-----|
|--------------------------|-----------------------------------|
|--------------------------|-----------------------------------|
|
| Q  Q  S S E   +S  S  E      S S S S  S  S  E   +Q     Q
|--------------------------|-----------------------------------|
|--------------------------|-----------------------------------|
|--------------------------|-----------------------------------|
|-------1------------------|-----------1-----------------------|
|-3--3------3---(3)--------|--1---3----------3---(3)-----------|
|--------------------------|-----------------------------------|
|
| W                           Q       +S  S  E   +Q.         E
|-8------------------------|--6-------(6)----5---(5)-----------|
|-8------------------------|--6-------(6)----6---(6)-----------|
|-8------------------------|--7-------(7)----5---(5)-----------|
|--------------------------|-----------------------------------|
|--------------------------|-----------------------------------|
|--------------------------|-----------------------------------|


  S S S S S S S S S S  S S  S  S  S S
|-------------------------------------|
|-------------------------------------|
|-8---8---8---8---8-------------------|
|---------------------10---10----10---|
|-------------------------------------|
|-------------------------------------|
|
| Q       Q       S S  E   +S  S  E
|-------------------------------------|
|-------------------------------------|
|-------------------------------------|
|-----------------1-------------------|
|-3-------3------------3---(3)--------|
|-------------------------------------|
|
| W
|-8-----------------------------------|
|-8-----------------------------------|
|-8-----------------------------------|
|-------------------------------------|
|-------------------------------------|
|-------------------------------------|


   Q        S  S  E  +Q   Q     S S S S S S  S S Q      Q
|-----------------------------|---------------------------------|
|-----------------------------|---------------------------------|
|-----------------------------|-8---8---8--------8--------------|
|-12-------12----10-(10)------|-------------10------------------|
|-----------------------------|---------------------------------|
|-----------------------------|---------------------------------|
|
|  S S S S  S  S  E  +Q   Q     Q       Q        S S E +S  S E
|-----------------------------|---------------------------------|
|-----------------------------|---------------------------------|
|-----------------------------|---------------------------------|
|-----------1-----------------|------------------1--------------|
|--1---3----------3--(3)------|-3-------3------------3-(3)------|
|-----------------------------|---------------------------------|
|
|  Q       +S  S  E  +Q.    E   W
|--6-------(6)----5--(5)------|-8-------------------------------|
|--6-------(6)----6--(6)------|-8-------------------------------|
|--7-------(7)----5--(5)------|-8-------------------------------|
|-----------------------------|---------------------------------|
|-----------------------------|---------------------------------|
|-----------------------------|---------------------------------|


  S S S S  S  S S S  Q   Q      Q   +S  S  E  +Q    Q     Q   +S  S E +Q   Q
|----------------------------|-------------------------|----------------------|
|----------------------------|--3---(3)----1--(1)---4--|--3---(3)---1-(1)-----|
|-7---7----7----5----5-------|-------------------------|-------------------3--|
|------------------------5---|-------------------------|----------------------|
|----------------------------|-------------------------|----------------------|
|----------------------------|-------------------------|----------------------|
|
| S S S S  S  S E   +Q   Q      Q   +S  S  E  +Q    Q     Q   +S  S E +Q   Q
|----------------------------|-------------------------|----------------------|
|----------------------------|--3---(3)----1--(1)---4--|--3---(3)---1-(1)-----|
|----------------------------|-------------------------|-------------------3--|
|----------1-----------------|-------------------------|----------------------|
|-1---3---------3---(3)------|-------------------------|----------------------|
|----------------------------|-------------------------|----------------------|
|
| Q       +S  S E   +Q.    E    Q   +S  S  E  +Q    Q     Q   +S  S E +Q   Q
|-6-------(6)---5---(5)------|---------------------11--|-10--(10)---8-(8)--6--|
|-6-------(6)---6---(6)------|-15--(15)---13-(13)--11--|-11--(11)---8-(8)--6--|
|-7-------(7)---5---(5)------|-15--(15)---13-(13)--12--|-10--(10)---8-(8)--7--|
|----------------------------|-15--(15)---13-(13)------|----------------------|
|----------------------------|-------------------------|----------------------|
|----------------------------|-------------------------|----------------------|


  Gtrs I, II
   Q   +S  S E +Q    Q     Q   +S  S E +Q   Q
|-----------------------|----------------------|
|--3---(3)---1-(1)---4--|--3---(3)---1-(1)-----|
|-----------------------|-------------------3--|
|-----------------------|----------------------|
|-----------------------|----------------------|
|-----------------------|----------------------|
|
| Gtr III
|  Q   +S  S E +Q    Q     Q   +S  S E +Q   Q
|-10--(10)---8-(8)--11--|-10--(10)---8-(8)--6--|
|-11--(11)---9-(9)--11--|-11--(11)---8-(8)--6--|
|-10--(10)---8-(8)--12--|-10--(10)---8-(8)--7--|
|-----------------------|----------------------|
|-----------------------|----------------------|
|-----------------------|----------------------|


   Q   +S  S E +Q    Q     Q   +S  S E +Q   Q
|-----------------------|----------------------|
|--3---(3)---1-(1)---4--|--3---(3)---1-(1)-----|
|-----------------------|-------------------3--|
|-----------------------|----------------------|
|-----------------------|----------------------|
|-----------------------|----------------------|
|
|  Q   +S  S E +Q    Q     Q   +S  S E +Q   Q
|-10--(10)---8-(8)--11--|-10--(10)---8-(8)--6--|
|-11--(11)---9-(9)--11--|-11--(11)---8-(8)--6--|
|-10--(10)---8-(8)--12--|-10--(10)---8-(8)--7--|
|-----------------------|----------------------|
|-----------------------|----------------------|
|-----------------------|----------------------|


  W
|------*|
|-1----*|
|------*|
|------*|
|------*|
|------*|
|
| W
|-8----*|
|-8----*|
|-8----*|
|------*|
|------*|
|------*|


Duration Legend
---------------
W - whole; H - half; Q - quarter; E - 8th; S - 16th; T - 32nd; X - 64th; a - acciaccatura
+ - note tied to previous; . - note dotted; .. - note double dotted
Uncapitalized letters represent notes that are staccato (1/2 duration)
Irregular groupings are notated above the duration line
Duration letters will always appear directly above the note/fret number it represents the
duration for.  Duration letters with no fret number below them represent rests.  Multi-
bar rests are notated in the form Wxn, where n is the number of bars to rest for.  Low
melody durations appear below the staff

Tablature Legend
----------------
 h   - hammer-on
 p   - pull-off
 b   - bend
 pb  - pre-bend
 r   - bend release (if no number after the r, then release immediately)
 /\  - slide into or out of (from/to "nowhere")
 s   - legato slide
 S   - shift slide
  - natural harmonic
[n]  - artificial harmonic
n(n) - tapped harmonic
 ~   - vibrato
 tr  - trill
 T   - tap
 TP  - trem. picking
 PM  - palm muting
\n/  - tremolo bar dip; n = amount to dip
 \n  - tremolo bar down
 n/  - tremolo bar up
/n\  - tremolo bar inverted dip
 =   - hold bend; also acts as connecting device for hammers/pulls
 <>  - volume swell (louder/softer)
 x   - on rhythm slash represents muted slash
 o   - on rhythm slash represents single note slash

Misc Legend
-----------
 |  - bar
||  - double bar
||o - repeat start
o|| - repeat end
*|  - double bar (ending)
 :  - bar (freetime)
 $  - Segno
 &  - Coda
Tempo markers -  = BPM(8/16=s8/s16), where s8 = swing 8ths, s16 = swing 16ths
Tap to rate this tab
# A B C D E F G H I J K L M N O P Q R S T U V W X Y Z