Song name
# A B C D E F G H I J K L M N O P Q R S T U V W X Y Z

Backstreet Boys - I Need You Tonight tab

Tabbed by: Homer Murray
Tuning: E A D G B E

It may be off alittle, maybe by alot. It's the closest I could get it though, I just got 
of messing with it. The low notes (0, 2, 3)
I think may be done with another guitar.

If you got quick hands:
|-12-11--------------------------13-12---------------------------|
|-------------13------15---------------------13-----------------1|
|-----------0----0-12----------0-----------0----0---12-14-----2--|
|---------2------------------0-----------2--------2---------3----|
|-------0------------------2-----------2------------------3------|
|------------------------3---------------------------------------|

Here is the simpler version with two guitars.
Guitar 1:
|-12-11--------------------------13-12---------------------------|
|-------------13------15---------------------13------------------|
|------------------12-------------------------------12-14--------|
|----------------------------------------------------------------|
|----------------------------------------------------------------|
|----------------------------------------------------------------|

Guitar 2:
|----------------------------------------------------------------|
|---------------------------------------------------------------1|
|-----------0----0-------------0-----------0----0-------------2--|
|---------2------------------0-----------2--------2---------3----|
|-------0------------------2-----------2------------------3------|
|------------------------3---------------------------------------|


This is my first tabs so I hope it's right or close enough.
E-mail me for corrections at hmj_2003@yahoo.com ENJOY:)
Tap to rate this tab
# A B C D E F G H I J K L M N O P Q R S T U V W X Y Z