Song name
# A B C D E F G H I J K L M N O P Q R S T U V W X Y Z

Backstreet Boys - Helpless When She Smiles tab

Band: Backstreet Boys
Song: Helpless When She Smiles
Album: Unbreakable

Solo:
E|-----------------------------------------------------------------------------------------------|
B|---------------------9-10-12-12------9-10-12-12-----10-9---------------------------------------|
G|----------------9--9------------11---------------9-------11-11--9------------------------------|
D|-----------------------------------------------------------------------------------------------|
A|-----------------------------------------------------------------------------------------------|
E|-----------------------------------------------------------------------------------------------|


E|------12----14-----16-17-16-14-12-14--11-------------------------------------------------------|
B|---12----12----12------------------------12----------------------------------------------------|
G|--------------------------------------------11-------------------------------------------------|
D|-----------------------------------------------------------------------------------------------|
A|-----------------------------------------------------------------------------------------------|
E|-----------------------------------------------------------------------------------------------|
Tap to rate this tab
# A B C D E F G H I J K L M N O P Q R S T U V W X Y Z