Song name
# A B C D E F G H I J K L M N O P Q R S T U V W X Y Z

Backstreet Girls - Hell Will Pay tab

artist:BACKSTREET GIRLS
song Hell Will Pay



4 times
---------------------------|
---------------9-----------|
---------------------------|
6--7--6--7--9----9---------|
---------------------------|
---------------------------|

----------------------------------------------------------------------------


2 times
---------------------------|
---------------------------|
---------------------------|
6--7--4--2--4-4-2--4-------|
---------------------------|
---------------------------|




---------------------------|
---------------------------|
---------------------------|
7--6--4--2-2-2-2-----------|
---------------------------|
---------------------------|


--------------------------|
--------------------------|
--------------------------|
7--6--4--2--4-4-2--4------|
--------------------------|
--------------------------|

----------------------------------------------------------------------------

4 times
--------------------------|
---------------9----------|
--------------------------|
6--7--6--7--9----9--------|
--------------------------|
--------------------------|
Tap to rate this tab
 
# A B C D E F G H I J K L M N O P Q R S T U V W X Y Z