Guitaretab - guitar tabs
Song name
# A B C D E F G H I J K L M N O P Q R S T U V W X Y Z

Backyard Babies - Babylon tab

100% perfect. Play the first |--0-3-0--| quickly.
[ Tab from: http://www.guitaretab.com/b/backyard-babies/162239.html ]
   Intro and verse and solo backing riff
|----------------------------------------------------------------------|
|----------------------------------------------------------------------|
|---------------------2-----4--4--0--2--2--0---------------------------|
|------------2--------2-----4--4--0--2--2--0--2--x--x--x--x--2--2------|
|------------2--------0-----2--2-----0--0-----2--x--x--x--x--2--2------|
|---0--3--0--0--3--0-----0--------------------0--x--x--x--x--0--0------|


 Chorus riff
|---------------------------------------|--------------------------------|
|---------------------------------------|--------------------------------|
|7--------------------------------------|--------------------------------|
|7--9-----------2~~~--------------2~~~--|--------------------------------|
|5--9-----------------------------------|--------------------------------|
|---7--0--3--0--------0--0--3--0--------|--------------------------------|
Related for Babylon tab