Guitaretab - guitar tabs
Song name
# A B C D E F G H I J K L M N O P Q R S T U V W X Y Z

Backyard Babies - Heaven 29 tab

-------------------------------------------------------------------------------
			     Heaven 2.9 - Backyard Babies
-------------------------------------------------------------------------------


Tabbed by: Viktor St Maths
Email: endelavsverige@hotmail.com

Tuning: halv step down - Eb

I wrote two ways of playing the intro, its basicly same same but differet:) 



Intro 1

e|--3-----3-3-----3-----3---7-7-7-7--5-----5-5-----5-----5-5-8-8-8-8---------|
B|--3-----3-3-----3-----3---3-3-3-3--3-----3-3-----3-----3-3-3-3-3-3---------|
G|---------------------------------------------------------------------------|
D|----5-5-----5-5---5-5---5-----------0-0-----0-0---0-0----------------------|
A|---------------------------------------------------------------------------|
E|---------------------------------------------------------------------------|
 |
e|---------------------------------------------------------------------------|
B|---------------------------------------------------------------------------|
G|---------------------------------------------------------------------------|
D|---------------------------------------------------------------------------|
A|---------------------------------------------------------------------------|
E|---------------------------------------------------------------------------|


e|--3-----3-3-----3-----3-3-7-7-7-7--5-5--5-5--5-5--5-5-5--5-5-5-5-5---------|
B|--3-----3-3-----3-----3-3-3-3-3-3--3-3--3-3--3-3--3-3-3--3-3-3-3-3---------|
G|---------------------------------------------------------------------------|
D|----5-5-----5-5---5-5------------------------------------------------------|
A|---------------------------------------------------------------------------|
E|---------------------------------------------------------------------------|
 |
e|---------------------------------------------------------------------------|
B|---------------------------------------------------------------------------|
G|---------------------------------------------------------------------------|
D|--5---------------------------------5-5--5-5--5-5--------------------------|
A|--5---------------------------------5-5--5-5--5-5--------------------------|
E|--3---------------------------------3-3--3-3--3-3--pickslide---------------|

===============================================================================


Intro 2

e|--------------------------7-7-7-7-5------5-5-----5-----5-5-8-8-8-8---------|
B|--8-----8-8-----8-----8---8-8-8-8--------x-x-----x-----x-x-x-x-x-x---------|
G|--7-----7-7-----7-----7-----------7------7-7-----7-----7-7-7-7-7-7---------|
D|----5-5-----5-5---5-5---5-----------0-0-----0-0---0-0----------------------|
A|---------------------------------------------------------------------------|
E|---------------------------------------------------------------------------|
 |
e|---------------------------------------------------------------------------|
B|---------------------------------------------------------------------------|
G|---------------------------------------------------------------------------|
D|---------------------------------------------------------------------------|
A|---------------------------------------------------------------------------|
E|---------------------------------------------------------------------------|


e|--------------------------7-7-7-7--5-3--3-3--3-3--3-3-3--3-3-3-3-3---------|
B|--8-----8-8-----8-----8-8-8-8-8-8--x-x--x-x--x-x--x-x-x--x-x-x-x-x---------|
G|--7-----7-7-----7-----7-7----------7-7--7-7--7-7--7-7-7--7-7-7-7-7---------|
D|----5-5-----5-5---5-5------------------------------------------------------|
A|---------------------------------------------------------------------------|
E|---------------------------------------------------------------------------|
 |
e|---------------------------------------------------------------------------|
B|---------------------------------------------------------------------------|
G|---------------------------------------------------------------------------|
D|--5---------------------------------5-5--5-5--5-5--------------------------|
A|--5---------------------------------5-5--5-5--5-5--------------------------|
E|--3---------------------------------3-3--3-3--3-3--pickslide---------------|




e|---------------------------------------------------------------------------|
B|---------------------------------------------------------------------------|
G|--7-7-7-7-7-7-7-7-7-5-5-4-4------------------------------------------------|
D|--5-5-5-5-5-5-5-5-5-5-5-5-5-7-7-5-7-7-7-7-7-7-7-7-5-5-5-5-5-5-5-5----------|
A|----------------------------------5-5-5-5-5-5-5-5-3-3-3-3-3-3-3-3----------|
E|---------------------------------------------------------------------------|
 |
e|---------------------------------------------------------------------------|
B|---------------------------------------------------------------------------|
G|---------------------------------------------------------------------------|
D|----------------------------------7-7-7-7-7-7-7-7-5-5-5-5-5-5-5-5----------|
A|--5-5-5-5-5-5-5-5-5-5-5-5-5-5-5-5-5-5-5-5-5-5-5-5-3-3-3-3-3-3-3-3----------|
E|--3-3-3-3-3-3-3-3-3-3-3-3-3-3-3-3------------------------------------------|


e|---------------------------------------------------------------------------|
B|---------------------------------------------------------------------------|
G|--7-7-7-7-7-7-7-7-7-5-5-4-4------------------------------------------------|
D|--5-5-5-5-5-5-5-5-5-5-5-5-5-7-7-5-7-7-7-7-7-7-7-7-5-5-5-5-5----------------|
A|----------------------------------5-5-5-5-5-5-5-5-3-3-3-3-3-2-0------------|
E|---------------------------------------------------------------------------|
 |
e|---------------------------------------------------------------------------|
B|---------------------------------------------------------------------------|
G|---------------------------------------------------------------------------|
D|----------------------------------7-7-7-7-7-7-7-7-5-5-5-5-5----------------|
A|--5-5-5-5-5-5-5-5-5-5-5-5-5-5-5-5-5-5-5-5-5-5-5-5-3-3-3-3-3-2-0------------|
E|--3-3-3-3-3-3-3-3-3-3-3-3-3-3-3-3------------------------------------------|



e|---------------------------------------------------------------------------|
B|---------------------------------------------------------------------------|
G|----------------------4-5-4------------------------------------------------|
D|--------------------5-------5\---------------------------------------------|
A|----2-3-2----2-3-2---------------------------------------------------------|
E|--3--------3---------------------------------------------------------------|
 |
e|---------------------------------------------------------------------------|
B|---------------------------------------------------------------------------|
G|---------------------------------------------------------------------------|
D|---------------------------------------------------------------------------|
A|----2-3-2----2-3-2----2-3-2------------------------------------------------|
E|--3--------3--------3-------3\---------------------------------------------|

		    D
Someone put me on a plane 
	    G
goodbye farewell adios my friends 
	     D
I need a holiday 
	 G
S.A.S is takin' off again 

	C
I wanna have my fun 
	  D
where the nights are long 
G (A-string)F#
we wanna go away 
	  E 	   D      C
where the sun will always shine 
	 D
we're in heaven 2.9 


e|--------------|
B|--------------|
G|----4-5-4-----|
D|--5--------5--|
A|--------------|
E|--------------|
 |
e|--------------|
B|--------------|
G|--------------|
D|--------------|
A|----2-3-2-----|
E|--3--------3--|



		    D
or just put me on a train 
    <        <         <
e|---------------------------------|
B|--12/15----12/15----12/15--------|
G|--------12-------12-------12\----|
D|---------------------------------|
A|---------------------------------|
E|---------------------------------|

	    G
goodbye farewell adios my friend 

e|-----------------------------|
B|-----------------------------|
G|-----------------------------|
D|-----------------------------|
A|--17-17-17-17----17-17-17-17-|
E|--15-15-15-15----15-15-15-15-|

		D
tell her I said hey
    <  <     <  <     < 
e|-----------------------------|
B|--------14-------14----14----|
G|--12-12----12-12----12-------|
D|-----------------------------|
A|-----------------------------|
E|-----------------------------|

	    G
and I might not come home again 
    <        <        <
e|---------------------------------|
B|--12/15----12/15----12/15--------|
G|--------12-------12-------12\----|
D|---------------------------------|
A|---------------------------------|
E|---------------------------------|

	C
I wanna have my fun 
	  D
where the nights are long 
G (A-string)F#
we wanna go away 
	  E 	   D      C
where the sun will always shine 
	 D
we're in heaven 2.9 ooaaoooo

e|---------------------------------------------------------------------------|
B|---------------------------------------------------------------------------|
G|--7-7-7-7-7-7-7-7-7-5-5-4-4------------------------------------------------|
D|--5-5-5-5-5-5-5-5-5-5-5-5-5-7-7-5-7-7-7-7-7-7-7-7-5-5-5-5-5-5-5-5----------|
A|----------------------------------5-5-5-5-5-5-5-5-3-3-3-3-3-3-3-3----------|
E|---------------------------------------------------------------------------|
 |
e|---------------------------------------------------------------------------|
B|---------------------------------------------------------------------------|
G|---------------------------------------------------------------------------|
D|----------------------------------7-7-7-7-7-7-7-7-5-5-5-5-5-5-5-5----------|
A|--5-5-5-5-5-5-5-5-5-5-5-5-5-5-5-5-5-5-5-5-5-5-5-5-3-3-3-3-3-3-3-3----------|
E|--3-3-3-3-3-3-3-3-3-3-3-3-3-3-3-3------------------------------------------|
	 D
we're in heaven 2.9 oooaaaooo
[ Tab from: http://www.guitaretab.com/b/backyard-babies/179013.html ]
e|---------------------------------------------------------------------------|
B|---------------------------------------------------------------------------|
G|--7-7-7-7-7-7-7-7-7-5-5-4-4------------------------------------------------|
D|--5-5-5-5-5-5-5-5-5-5-5-5-5-7-7-5-7-7-7-7-7-7-7-7-5-5-5-5-5-5-4-2----------|
A|----------------------------------5-5-5-5-5-5-5-5-3-3-3-3-3-3-2-0----------|
E|---------------------------------------------------------------------------|
 |
e|---------------------------------------------------------------------------|
B|---------------------------------------------------------------------------|
G|---------------------------------------------------------------------------|
D|----------------------------------7-7-7-7-7-7-7-7-5-5-5-5-5-5-4-2----------|
A|--5-5-5-5-5-5-5-5-5-5-5-5-5-5-5-5-5-5-5-5-5-5-5-5-3-3-3-3-3-3-2-0----------|
E|--3-3-3-3-3-3-3-3-3-3-3-3-3-3-3-3------------------------------------------|


F#	 G	 
a London queen 
      A
Tokyo teen 

a Frisco fag in the disco scene 
F#	   G 
a New York doll 
	       A
and the Berlin boys 

Solo C D G F# E D C D
    A		    C         D      G      F#       E     D   C
e|--12-12-12-12-12\-------------------------------------------12-15p12-15p12-|
B|-------------------------------------12-15-15p12---------------------------|
G|----------------------------12-14-14-------------14-12\--------------------|
D|-------------------14-14-14------------------------------------------------|
A|---------------------------------------------------------------------------|
E|---------------------------------------------------------------------------|
 |
e|---------------------------------------------------------------------------|
B|---------------------------------------------------------------------------|
G|---------------------------------------------------------------------------|
D|-------------------5--------7-------12-----11------9----7---5--------------|
A|--7--7--7--7--7----3--------5-------10-----9-------7----5---3--------------|
E|--5--5--5--5--5------------------------------------------------------------|

					D
e|--------------15p12-15p12-------------15p12-15p12--------------------------|
B|--15p12-15p12-------------15p12-15p12-------------15p12-15p12--------------|
G|--------------------------------------------------------------14p12-14p12--|
D|---------------------------------------------------------------------------|
A|---------------------------------------------------------------------------|
E|---------------------------------------------------------------------------|
 |
e|---------------------------------------------------------------------------|
B|---------------------------------------------------------------------------|
G|---------------------------------------------------------------------------|
D|--------------------------------------7------------------------------------|
A|--------------------------------------5------------------------------------|
E|---------------------------------------------------------------------------|

              G
e|---------------------------------------------------------------------------|
B|--15p12-------12-13-12-----------------------------------------------------|
G|--------14-12----------12\-------------------------------------------------|
D|---------------------------------------------------------------------------|
A|---------------------------------------------------------------------------|
E|---------------------------------------------------------------------------|
 |
e|---------------------------------------------------------------------------|
B|---------------------------------------------------------------------------|
G|---------------------------------------------------------------------------|
D|---------------------------------------------------------------------------|
A|--------------2--3--2------------------------------------------------------|
E|------------3----------3\--------------------------------------------------|


		   D
Can I ride in your car? 
	    G
Goodbye farewell adios my friend 
		 D
vacations at the jet set sunset bay 
	     G
my girls are drivin' me insane 


	C
I wanna have my fun 
	  D
where the nights are long 
G (A-string)F#
we wanna go away 
	  E 	   D      C
where the sun will always shine 
	 D
we're in heaven 2.9 ooaaoooo

e|---------------------------------------------------------------------------|
B|---------------------------------------------------------------------------|
G|--7-7-7-7-7-7-7-7-7-5-5-4-4------------------------------------------------|
D|--5-5-5-5-5-5-5-5-5-5-5-5-5-7-7-5-7-7-7-7-7-7-7-7-5-5-5-5-5-5-5-5----------|
A|----------------------------------5-5-5-5-5-5-5-5-3-3-3-3-3-3-3-3----------|
E|---------------------------------------------------------------------------|
 |
e|---------------------------------------------------------------------------|
B|---------------------------------------------------------------------------|
G|---------------------------------------------------------------------------|
D|----------------------------------7-7-7-7-7-7-7-7-5-5-5-5-5-5-5-5----------|
A|--5-5-5-5-5-5-5-5-5-5-5-5-5-5-5-5-5-5-5-5-5-5-5-5-3-3-3-3-3-3-3-3----------|
E|--3-3-3-3-3-3-3-3-3-3-3-3-3-3-3-3------------------------------------------|

we're in heaven 2.9 ooaaoooo
e|---------------------------------------------------------------------------|
B|---------------------------------------------------------------------------|
G|--7-7-7-7-7-7-7-7-7-5-5-4-4------------------------------------------------|
D|--5-5-5-5-5-5-5-5-5-5-5-5-5-7-7-5-7-7-7-7-7-7-7-7-5-5-5-5-5-5-5-5----------|
A|----------------------------------5-5-5-5-5-5-5-5-3-3-3-3-3-3-3-3----------|
E|---------------------------------------------------------------------------|
 |
e|---------------------------------------------------------------------------|
B|---------------------------------------------------------------------------|
G|---------------------------------------------------------------------------|
D|----------------------------------7-7-7-7-7-7-7-7-5-5-5-5-5-5-5-5----------|
A|--5-5-5-5-5-5-5-5-5-5-5-5-5-5-5-5-5-5-5-5-5-5-5-5-3-3-3-3-3-3-3-3----------|
E|--3-3-3-3-3-3-3-3-3-3-3-3-3-3-3-3------------------------------------------|

we're in heaven 2.9 ooaaoooo a 2.9, 2.9 and a 2.9 
e|---------------------------------------------------------------------------|
B|---------------------------------------------------------------------------|
G|--7-7-7-7-7-7-7-7-7-5-5-4-4------------------------------------------------|
D|--5-5-5-5-5-5-5-5-5-5-5-5-5-7-7-5-7-7-7-7-7-7-7-7-5-5-5-5-5-5-5-5----------|
A|----------------------------------5-5-5-5-5-5-5-5-3-3-3-3-3-3-3-3----------|
E|---------------------------------------------------------------------------|
 |
e|---------------------------------------------------------------------------|
B|---------------------------------------------------------------------------|
G|---------------------------------------------------------------------------|
D|----------------------------------7-7-7-7-7-7-7-7-5-5-5-5-5-5-5-5----------|
A|--5-5-5-5-5-5-5-5-5-5-5-5-5-5-5-5-5-5-5-5-5-5-5-5-3-3-3-3-3-3-3-3----------|
E|--3-3-3-3-3-3-3-3-3-3-3-3-3-3-3-3------------------------------------------|

and a 2.9, 1999
e|---------------------------------------------------------------------------|
B|---------------------------------------------------------------------------|
G|--7-7-7-7-7-7-7-7-7-5-5-4-4------------------------------------------------|
D|--5-5-5-5-5-5-5-5-5-5-5-5-5-7-7-5-7-7-7-7-7-7-7-7-5-5-5-5-5-5-5-5----------|
A|----------------------------------5-5-5-5-5-5-5-5-3-3-3-3-3-3-3-3-5------5-|
E|------------------------------------------------------------------3------3-|
 |
e|---------------------------------------------------------------------------|
B|---------------------------------------------------------------------------|
G|---------------------------------------------------------------------------|
D|----------------------------------7-7-7-7-7-7-7-7-5-5-5-5-5-5-5-5----------|
A|--5-5-5-5-5-5-5-5-5-5-5-5-5-5-5-5-5-5-5-5-5-5-5-5-3-3-3-3-3-3-3-3-5------5-|
E|--3-3-3-3-3-3-3-3-3-3-3-3-3-3-3-3---------------------------------3------3-|



===============================================================================

Chords and lyrics


Intro: G    D     G     D   
       G    D  C  G     D  C   
       G    G     G     G


		    D
Someone put me on a plane 
	    G
goodbye farewell adios my friends 
	     D
I need a holiday 
	 G
S.A.S is takin' off again 


	C
I wanna have my fun 
	  D
where the nights are long 
	 G  F#
we wanna go away 
	  Em       D 	  C
where the sun will always shine 
	 D	   G
we're in heaven 2.9 


		    D
or just put me on a train 
	    G
goodbye farewell adios my friend 
                D 
tell her I said hey 
	    G
and I might not come home again 



	C
I wanna have my fun 
	  D
where the nights are long 
	 G  F#
we wanna go away 
	  Em       D 	  C
where the sun will always shine 
	 D	  G	      D
we're in heaven 2.9   ooooaaaaooooo
	 C	  G	      D     C
we're in heaven 2.9   ooooaaaaooooo


F#	 G	 
a London queen 
      Am
Tokyo teen 

a Frisco fag in the disco scene 
F#	   G 
a New York doll 
	       Am
and the Berlin boys 


Solo: C D G F# E D C D



		   D
Can I ride in your car? 
	    G
Goodbye farewell adios my friend 
		 D
vacations at the jet set sunset bay 
	     G
my girls are drivin' me insane 


	C
I wanna have my fun 
	  D
where the nights are long 
	 G  F#
we wanna go away 
	  Em       D 	  C
where the sun will always shine 
	 D	  G	      D
we're in heaven 2.9   ooooaaaaooooo
	 C	  G	      D     
we're in heaven 2.9   ooooaaaaooooo
	 C	  G	          
we're in heaven 2.9   
    D    C         G
A 2.9, 2.9 and a 2.9
	D  C  G
And a 2.9, 1999

===============================================================================


| /  slide up
| \  slide down
| h  hammer-on
| p  pull-off
| ~  vibrato
| +  harmonic
| x  Mute note
===============================================================================
Related for Heaven 29 tab