Song name
# A B C D E F G H I J K L M N O P Q R S T U V W X Y Z

Backyard Babies - Made Me Madman tab

Artist: Backyard Babies
Song: Made Me Madman
Album: Total 13
Tabbed by: HD


Tuning: 1/2 tone down (Eb Bb Gb Db Ab Eb)

N.B.: Strumming patterns for GTR I are not tabbed; get down and dirty with the power chords,
and let the rhythm drive your strumming; the important thing is to keep it tight with
drums, get right
a bit of palm muting here and there and get the right groove... it's rock'n'roll baby!!

(Intro)

GTR I
     A5                              G5              D5
GTR II (w/WHA)
|---------------------------------------------------------------------------------|
|---------------------------------------------------------------------------------|
|----------3~--3-------5~--5-----7~--------3~--3-------5-5-5-----7-7--------------|
|---/5---5-------5---5-------5-5-----5-5-5-------5-5-5-------5-5------------------|
|---------------------------------------------------------------------------------|
|---------------------------------------------------------------------------------|

GTR I
     A5                              D5              G5
GTR II (w/WHA)
|---------------------------------------------------------------------------------|
|---------------------------------------------------------------------------------|
|----------3~--3-------5~--5-----7~--------3~--3-------5-5-5-----7-7--------------|
|---/5---5-------5---5-------5-5-----5-5-5-------5-5-5-------5-5------------------|
|---------------------------------------------------------------------------------|
|---------------------------------------------------------------------------------|

(Verse 1)

GTR I
     C5                              A5
GTR II
|-----------------------------------------------------------------------------------|
|-----------------------------------------------------------------------------------|
|----5---5---5-5-----5-----5-----5-5------------------------------------------------|
|----5---5---5-5-5-5-5-5-5-5-5-5-5-5-7-7-------7-7-7-7-7-------7-7-7----------------|
|----3---3---3-3-3-3-3-3-3-3-3-3-3-3-7-7-7-7-7-7-7-7-7-7-7-7-7-7-7-7----------------|
|------------------------------------5-5-5-5-5-5-5-5-5-5-5-5-5-5-5-5----------------|
                 |--   |--   |--         |----           |--------------------------|
                 PM

GTR I
     C5                              A5
GTR II
|-----------------------------------------------------------------------------------|
|-----------------------------------------------------------------------------------|
|----5---5---5-5-----5-----5-----5-5------------------------------------------------|
|----5---5---5-5-5-5-5-5-5-5-5-5-5-5-----7-7-------------7-7-----7-7----------------|
|----3---3---3-3-3-3-3-3-3-3-3-3-3-3-------------7-7-------------7-7----------------|
|------------------------------------5-5-----5-5-----5-5-----5-5-5-5----------------|
                 |--   |--   |--     |--     |--     |--     |----------------------|
                 PM

GTR I & II
     C5                              F5(8-ft)        E5(7-ft)

(repeat Intro)

(Verse 2)

GTR I
     C5                              (----------------------------------)
GTR II
|-----------------------------------------------------------------------------------|
|------------------------------------5----5-5-5-5-5-5--5----------------------------|
|----5---5-------5-----5-----5---5-5-7b(9-9 9 9 9 9 9)-7b(9)r7-5~-------------------|
|----5---5---5-5-5-5-5-5-5-5-5-5-5-5------------------------------------------------|
|----3---3---3-3-3-3-3-3-3-3-3-3-3-3------------------------------------------------|
|-----------------------------------------------------------------------------------|
             |--   |--   |--  ------------------------------------------------------|
             PM

GTR I
     C5                              (pick scratch)
GTR II
|-----------------------------------------------------------------------------------|
|-----------------------------------------------------------------------------------|
|----5---5-------5-----5-----5---5-5-------7---5------------------------------------|
|----5---5---5-5-5-5-5-5-5-5-5-5-5-5-------7---5---7-5-6-5~-------------------------|
|----3---3---3-3-3-3-3-3-3-3-3-3-3-3---------------7--------------------------------|
|-----------------------------------/5~~~-------------------------------------------|
             |--   |--   |--  ------------------------------------------------------|
             PM

GTR I & II
     C5                              F5(8-ft)        E5(7-ft)

(Chorus... same as Intro)

(Solo)

GTR I same as Intro
GTR II---
|---------------------------------------------------------------------------------------|
|----5-------5-------5----------------10------10------10----------5-------5-------5-----|
|---7b(9)---7b(9)---7b(9)-----r7-5~-12b(14)-12b(14)-12b(14)~~~---7b(9)---7b(9)---7b(9)--|
|---------------------------------------------------------------------------------------|
|---------------------------------------------------------------------------------------|
|---------------------------------------------------------------------------------------|

GTR II
|------12-12-12-12-15-12-12-12-15-12-12-12-15-12-12-12-15-12-12-12-12-15-12-12-12-|
|--15b(17-17-17-17-17-17-17-17-17-17-17-17-17-17-17-17-17-17-17-17-17-17----------|
|---------------------------------------------------------------------------------|
|---------------------------------------------------------------------------------|
|---------------------------------------------------------------------------------|
|---------------------------------------------------------------------------------|

-15-12-12-12-15-12-12-12-------------|
-17-17-17-17-17-17-17-17-17-17-17)---|
-------------------------------------|
-------------------------------------|
-------------------------------------|
-------------------------------------|

(Bridge)
GTR I
     F5              G5              A5              A5
GTR II
|---------------------------------------------------------------------------------|
|---b17)------------r15~-------------13~------------------------------------------|
|---------------------------------------------------------------------------------|
|---------------------------------------------------------------------------------|
|---------------------------------------------------------------------------------|
|---------------------------------------------------------------------------------|

GTR I & II
     F5(1-ft)        G5              A5              A5

     F5(1-ft)                        E5(7-ft)

     A5\                                 (feedback & pick scratch)

(Chorus)
same as Intro x2

GTR I (same as Intro)
GTR II
|--------------------------------------------------------------------|
|----5-------5-------5-------5--------10------10------10------10-----|
|---7b(9)---7b(9)---7b(9)---7b(9)---12b(14)-12b(14)-12b(14)-12b(14)--|
|--------------------------------------------------------------------|
|--------------------------------------------------------------------|
|--------------------------------------------------------------------|

GTR I (same as Intro)
GTR II
|--------------------------------------------------------------------|
|----5-------5-------5-------5---------------------------------------|
|---7b(9)---7b(9)---7b(9)---7b(9)-12b(14)-----9~------7~------5~-----|
|--------------------------------------------------------------------|
|--------------------------------------------------------------------|
|--------------------------------------------------------------------|

(Outro)
GTR I
|------------------------------------------------------------------------------------|
|------------------------------------------------------------------------------------|
|--------------------------------------------------------------------2---------------|
|----7---7\----------10--10\---------3---3\----------2---2-----------2---------------|
|----7---7\----------10--10\---------3---3\----------2---2-----------0---------------|
|----5---5\----------8---8-\---------1---1\----------0---0---------------------------|

GTR II
|------------------------------------------------------------------------------------|
|------------------------------------------------------------------------------------|
|------------------------------------10--10\---------9---9\--------------------------|
|----7---7\----------10--10\---------10--10\---------9---9\----------7---------------|
|----7---7\----------10--10\---------8---8-\---------7---7\----------7---------------|
|----5---5\----------8---8-\-----------------------------------------5---------------|

GTR I
|-----------|
|-----------|
|-----------|
|----7\-----|
|----7\-----|
|----5\-----|

GTR II
|-----------|
|-----------|
|-----------|
|----7\-----|
|----7\-----|
|----5\-----|

Good luck and keep rockin'
HD
Tap to rate this tab
 
# A B C D E F G H I J K L M N O P Q R S T U V W X Y Z