Song name
# A B C D E F G H I J K L M N O P Q R S T U V W X Y Z

Backyard Babies - Highlights tab

-------------------------------------------------------------------------------
			  HIGHLIGHTS - Backyard Babies
-------------------------------------------------------------------------------
Tabbed by: -attitude-
Email: j0in7@hotmail.com

Tuning: Half step down

e|----------------------------------------------------------------------------| 
B|----------------------------------------------------------------------------| 
G|---9/10-10-10-10/9-9-9-9/7-7-7-7/5-5-5-5/7-7-7-5/7-7-7----------------------| 
D|----------------------------------------------------------------------------| 
A|---7/8---8--8--8/7-7-7-7/5-5-5-5/3-3-3-3/5-5-5-3/5-5-5----------------------| 
E|----------------------------------------------------------------------------| 

   Intro. In the end of it Dregen plays only the notes on G string w/wah wah. 

e|----------------------------------------------------------------------------| 
B|----------------------------------------------------------------------------| 
G|----------------7--7--7--7--7--7--7-----------------10-10-10-9--5-----------| 
D|---------5------7--7--7--7--7--7--7-----------------10-10-10-9--5-----------| 
A|--5--7---3------5--5--5--5--5--5--5-----------------8--8--8--7--3-----------| 
E|--3--5----------------------------------------------------------------------| 

   Verses		                             

e|----------------------------------------------------------------------------| 
B|----------------------------------------------------------------------------| 
G|----5-----------------------------------------------------------------------| 
D|----5-------------5---------------------------------------------------------| 
A|----3-------------5---------------------------------------------------------| 
E|------------------3---------------------------------------------------------| 

  ...forever in my dreams there's a highlight let me be (than play intro again) 

e|----------------------------------------------------------------------------| 
B|----------------------------------------------------------------------------| 
G|----------------------------------------------------------------------------| 
D|--------5--7---------5--7--------5--7--------5--2---------------------------| 
A|--3--5--3--5--3--5---3--5--3--5--3--5--3--5--3--0---------------------------| 
E|--1--3--------1--3---------1--3--------1--3---------------------------------| 

   This is what they play before the "bongo part" 
 
e|----------------------------------------------------------------------------|
B|----------------------------------------------------------------------------| 
G|--5--7\----5--7\----5--7\----5--7\------------------------------------------| 
D|--5--7\----5--7\----5--7\----5--7\------------------------------------------| 
A|--3--5\----3--5\----3--5\----3--5\------------------------------------------| 
E|----------------------------------------------------------------------------|
   
   This before the solo, under "bongo part" 


   Than the solo with Dm pentatonic 


   Instead this is the part under solo (listen the song for correct timing): 

e|------------------------------------|---------------------------------------|
B|------------------------------------|---------------------------------------|
G|------------------------------------|---------------------------------------|
D|--7-7-7-7...-------5---play 2 times-|---------------5---play 2 times--------|
A|--5-5-5-5...---5-7-3----------------|--5-5-5-5--3-5-3-----------------------|
E|---------------3-5------------------|--3-3-3-3--1-3-------------------------|
 

e|----------------------------------------------------------------------------|
B|----------------------------------------------------------------------------|
G|----------------------------------------------------------------------------| 
D|--7-7-7-7...--5-------After that play intro---------------------------------|
A|--5-5-5-5...--3--5----------------------------------------------------------|
E|-----------------3----------------------------------------------------------|


  The end:

e|-----5---------5---------5--------------------------------------------------| 
B|-------6---------6---------6------------------------------------------------| 
G|--7------7--7------7--7------7----------------------------------------------| 
D|--7---------7---------7---------5-------------------------------------------| 
A|--5---------5---------5---------5-------------------------------------------| 
E|----------------------------------------------------------------------------|


************************************

| /   slide up
| \   slide down
| h   hammer-on
| p   pull-off
| ~   vibrato
| +   harmonic
| x   Mute note
| b   Bend
| pb  Pre-bend
| br  Bend release
| pbr Pre-bend release
| brb Bend release bend

************************************


I hope that this tab is correct and helpful for you!!!


Roxxxxxxxxxxxxxx!

Attitude

Tap to rate this tab
 
# A B C D E F G H I J K L M N O P Q R S T U V W X Y Z