Song name
# A B C D E F G H I J K L M N O P Q R S T U V W X Y Z

Backyard Babies - Nomadic tab

I'm not 100% sure this is the right version cause I just listened it out. I will put out 
tab for the whole song later. :)
Check out my band The Venges where I play the drums at myspace.com/thevenges. Go to 
and type in "thevenges" if you wanna hear our version of this song and others.

b = bend
/ = slide


e|----------4-4-5-5-4-4---4-4--------------------------|
B|-----------------------7-7----7-7-4-4-5-5-5-5-5-5-5--|
G|------6-6--------------------------------------------|
D|-----------------------------------------------------|
A|-----------------------------------------------------|
E|-----------------------------------------------------|

e|----------------------------------------------------|
B|-5-----------------4--7-7b--5-----------------------|
G|---6-6-6-6-6-6-6-6--6-------------------------------|
D|----------------------------------------------------|
A|----------------------------------------------------|
E|----------------------------------------------------|

e|--12--9----9--------------------------------------|
B|--------12---12-9---9-----------------------------|
G|------------------11--11-9------------------------|
D|--------------------------------------------------|
A|--------------------------------------------------|
E|--------------------------------------------------|

e|-----------------------------------------------------|
B|------9-9---9-9---9---9-9---9-9--9-------------------|
G|---11b----11b---11b--11b---11b---11b-----------------|
D|-----------------------------------------------------|
A|-----------------------------------------------------|
E|-----------------------------------------------------|

e|--------------------------------------------------|
B|--12-12-12-12-12-12-12-12-------------------------|
G|-------------------------11-11-11-9---8-----8-----|
D|--------------------------------------11-11--9-9--|
A|--------------------------------------------------|
E|--------------------------------------------------|

e|-----------------------------------------------------|
B|-----12----12/14-14-14-14-14-14-14-14----------------|
G|---11b-11b-------------------------------------------|
D|-----------------------------------------------------|
A|-----------------------------------------------------|
E|-----------------------------------------------------|
Tap to rate this tab
 
# A B C D E F G H I J K L M N O P Q R S T U V W X Y Z