Song name
# A B C D E F G H I J K L M N O P Q R S T U V W X Y Z

Backyard Babies - Highlights tab

'HIGHLIGHTS' by Backyard Babies 
Album: Total 13
Submitted by: Victor (vctrklndr[a]hotmail.com)

Tuning: ½ step down (Eb Ab Db Gb Bb eb)

Chords used:
F5: 133xxx
G5: 355xxx
C5: x355xx
D5: x577xx


(Intro)
GTR I
   D5
GTR II
e|----------------------------------------------------------------|
B|----------------------------------------------------------------|
G|-9h10-10-10-10-10-9-9-9-9-7-7-7-7-5-5-5-5h7-7-7-5-5-5h7-7-7-5-5-|
D|-0--0--0--0--0--0-0-0-0-0-0-0-0-0-0-0-0-0-0-0-0-0-0-0-0-0-0-0-0-| x5
A|----------------------------------------------------------------|
E|----------------------------------------------------------------|

GTR I
   D5
GTR II (with wah-wah)
e|----------------------------------------------------------------------------|
B|----------------------------------------------------------------------------|
G|-9h10-10-10-10-10-9-9-9-9-7-7-7-7-5-5-5-9h10-10-10-10-9-10-12-12-12-12-10-9-|
D|-0--0--0--0--0--0-0-0-0-0-0-0-0-0-0-0-0-0-0---0--0--0-0--0--0--0--0--0--0-0-|
A|----------------------------------------------------------------------------|
E|----------------------------------------------------------------------------|

GTR I
   D5
GTR II
e|----------------------------------------------------------------|
B|----------------------------------------------------------------|
G|-9h10-10-10-10-10-9-9-9-9-7-7-7-7-5-5-5-5h7-7-7-5-5-5h7-7-7-5-5-|
D|-0--0--0--0--0--0-0-0-0-0-0-0-0-0-0-0-0-0-0-0-0-0-0-0-0-0-0-0-0-|
A|----------------------------------------------------------------|
E|----------------------------------------------------------------|


F5 - G5 - C5

D5
I saw red, I saw green
                             F5      C5
I think I saw what the whole world's seen
D5
Gotta get away, gotta get away
                                 C5
'cause I know that nothin' lasts forever
      G5
In my dreams
                               D5
But there´s a highlight let me be

GTR I
   D5
GTR II
e|----------------------------------------------------------------|
B|----------------------------------------------------------------|
G|-9h10-10-10-10-10-9-9-9-9-7-7-7-7-5-5-5-5h7-7-7-5-5-5h7-7-7-5-5-|
D|-0--0--0--0--0--0-0-0-0-0-0-0-0-0-0-0-0-0-0-0-0-0-0-0-0-0-0-0-0-| x1
A|----------------------------------------------------------------|
E|----------------------------------------------------------------|


F5 - G5 - C5

D5
I need a kick, you need a fix
                 F5       C5
We are livin' on borrowed time
D5
Generation breakdown destination hellbound
                              C5
But I know that nothin' lasts forever
                     G5
Hallucinating, stuck together
                           D5
There's a highlight let me be

GTR I
   D5
GTR II
e|----------------------------------------------------------------|
B|----------------------------------------------------------------|
G|-9h10-10-10-10-10-9-9-9-9-7-7-7-7-5-5-5-5h7-7-7-5-5-5h7-7-7-5-5-|
D|-0--0--0--0--0--0-0-0-0-0-0-0-0-0-0-0-0-0-0-0-0-0-0-0-0-0-0-0-0-| x2
A|----------------------------------------------------------------|
E|----------------------------------------------------------------|
                                    Only you and me


(Pre-solo)

e|----------------------------------------------------------------|
B|----------------------------------------------------------------|
G|-------5--7----------------------------5--7---------------------|
D|-3--5--5--7----------------------3--5--5--7---------------------|
A|-3--5--3--5----------------------3--5--3--5---------------------|
E|-1--3----------------------------1--3---------------------------|
              It will blow me away            I will never forget

e|----------------------------------------------------------------|
B|----------------------------------------------------------------|
G|-------5--7----------------------------------5------------------|
D|-3--5--5--7----------------------------3--5--5--7---------------|
A|-3--5--3--5----------------------------3--5--3--7---------------|
E|-1--3----------------------------------1--3-----5---------------|
              It took a piece of my soul            

e|----------------------------------------------------------------|
B|----------------------------------------------------------------|
G|-5-7\------------5-7\------------5-7\------------5-7\-----------|
D|-5-7\------------5-7\------------5-7\------------5-7\-----------|
A|-3-5\------------3-5\------------3-5\------------3-5\-----------|
E|----------------------------------------------------------------|


(Solo)

e|------------------------------------|---------------------------|
B|------------------------------------|---------------------------|
G|------------------------------------|---------------------------|
D|--7-7-7-7...-------5---x2-----------|---------------5---x2------|
A|--5-5-5-5...---5-7-3----------------|--5-5-5-5--3-5-3-----------|
E|---------------3-5------------------|--3-3-3-3--1-3-------------|
 

e|----------------------------------------------------------------|
B|----------------------------------------------------------------|
G|----------------------------------------------------------------| 
D|--7-7-7-7...--5-------After that play intro---------------------|
A|--5-5-5-5...--3--5----------------------------------------------|
E|-----------------3----------------------------------------------|


D5
One day I will burn my hand
                               F5       C5
And I'll be resurrected in the promised land
D5
Among the gods I feel power and joy
                                       C5
I made my choice but nothin' will last forever
      G5
In my dreams
                           D5
There's a highlight let me be
Don't let me out

                  C5
Nothin' will last forever
                     G5
Hallucinating, stuck together
                              D5
There's a highlight can't you see
Only you and me

                  C5
Nothin' will last forever
      G5
In my dreams
                           D5
There´s a highlight let me be

  Ending:
e|-------5------------5------------5--------| 
B|---------6------------6------------6------| 
G|--7--------7---7--------7---7--------7----| 
D|--7------------7------------7-----------6-| 
A|--5------------5------------5-----------6-| 
E|----------------------------------------4-|

Tap to rate this tab
 
# A B C D E F G H I J K L M N O P Q R S T U V W X Y Z